  0
SECTION
  2
HEADER
  9
$ACADVER
  1
AC1012
  9
$DWGCODEPAGE
  3
ansi_1252
  9
$INSBASE
 10
0.0
 20
0.0
 30
0.0
  9
$EXTMIN
 10
-0.01
 20
-0.01
 30
0.0
  9
$EXTMAX
 10
10.49
 20
7.74
 30
0.0
  9
$LIMMIN
 10
0.0
 20
0.0
  9
$LIMMAX
 10
31.5
 20
20.5
  9
$ORTHOMODE
 70
     1
  9
$REGENMODE
 70
     1
  9
$FILLMODE
 70
     1
  9
$QTEXTMODE
 70
     0
  9
$MIRRTEXT
 70
     0
  9
$DRAGMODE
 70
     2
  9
$LTSCALE
 40
0.25
  9
$OSMODE
 70
     0
  9
$ATTMODE
 70
     1
  9
$TEXTSIZE
 40
1.5875
  9
$TRACEWID
 40
0.05
  9
$TEXTSTYLE
  7
ROMANS
  9
$CLAYER
  8
OBJ
  9
$CELTYPE
  6
BYLAYER
  9
$CECOLOR
 62
   256
  9
$CELTSCALE
 40
1.0
  9
$DELOBJ
 70
     1
  9
$DISPSILH
 70
     0
  9
$DIMSCALE
 40
0.5
  9
$DIMASZ
 40
0.125
  9
$DIMEXO
 40
0.0625
  9
$DIMDLI
 40
0.38
  9
$DIMRND
 40
0.0
  9
$DIMDLE
 40
0.0
  9
$DIMEXE
 40
0.09
  9
$DIMTP
 40
0.0
  9
$DIMTM
 40
0.0
  9
$DIMTXT
 40
0.125
  9
$DIMCEN
 40
0.09
  9
$DIMTSZ
 40
0.0
  9
$DIMTOL
 70
     0
  9
$DIMLIM
 70
     0
  9
$DIMTIH
 70
     0
  9
$DIMTOH
 70
     0
  9
$DIMSE1
 70
     0
  9
$DIMSE2
 70
     0
  9
$DIMTAD
 70
     1
  9
$DIMZIN
 70
     0
  9
$DIMBLK
  1

  9
$DIMASO
 70
     0
  9
$DIMSHO
 70
     1
  9
$DIMPOST
  1

  9
$DIMAPOST
  1

  9
$DIMALT
 70
     0
  9
$DIMALTD
 70
     2
  9
$DIMALTF
 40
25.4
  9
$DIMLFAC
 40
1.0
  9
$DIMTOFL
 70
     0
  9
$DIMTVP
 40
0.0
  9
$DIMTIX
 70
     1
  9
$DIMSOXD
 70
     0
  9
$DIMSAH
 70
     0
  9
$DIMBLK1
  1

  9
$DIMBLK2
  1

  9
$DIMSTYLE
  2
JOHN
  9
$DIMCLRD
 70
   256
  9
$DIMCLRE
 70
   256
  9
$DIMCLRT
 70
   256
  9
$DIMTFAC
 40
1.0
  9
$DIMGAP
 40
0.09
  9
$DIMJUST
 70
     0
  9
$DIMSD1
 70
     0
  9
$DIMSD2
 70
     0
  9
$DIMTOLJ
 70
     1
  9
$DIMTZIN
 70
     0
  9
$DIMALTZ
 70
     0
  9
$DIMALTTZ
 70
     0
  9
$DIMFIT
 70
     3
  9
$DIMUPT
 70
     0
  9
$DIMUNIT
 70
     2
  9
$DIMDEC
 70
     4
  9
$DIMTDEC
 70
     4
  9
$DIMALTU
 70
     2
  9
$DIMALTTD
 70
     2
  9
$DIMTXSTY
  7
STANDARD
  9
$DIMAUNIT
 70
     0
  9
$LUNITS
 70
     2
  9
$LUPREC
 70
     4
  9
$SKETCHINC
 40
0.1
  9
$FILLETRAD
 40
0.03
  9
$AUNITS
 70
     0
  9
$AUPREC
 70
     4
  9
$MENU
  1
acad
  9
$ELEVATION
 40
0.0
  9
$PELEVATION
 40
0.0
  9
$THICKNESS
 40
0.0
  9
$LIMCHECK
 70
     0
  9
$BLIPMODE
 70
     1
  9
$CHAMFERA
 40
0.5
  9
$CHAMFERB
 40
0.5
  9
$CHAMFERC
 40
0.0
  9
$CHAMFERD
 40
0.0
  9
$SKPOLY
 70
     0
  9
$TDCREATE
 40
2449513.660318749
  9
$TDUPDATE
 40
2451242.494097338
  9
$TDINDWG
 40
0.0457872685
  9
$TDUSRTIMER
 40
0.0457872685
  9
$USRTIMER
 70
     1
  9
$ANGBASE
 50
0.0
  9
$ANGDIR
 70
     0
  9
$PDMODE
 70
     0
  9
$PDSIZE
 40
0.0
  9
$PLINEWID
 40
0.0
  9
$COORDS
 70
     2
  9
$SPLFRAME
 70
     0
  9
$SPLINETYPE
 70
     6
  9
$SPLINESEGS
 70
     8
  9
$ATTDIA
 70
     0
  9
$ATTREQ
 70
     1
  9
$HANDLING
 70
     1
  9
$HANDSEED
  5
4F2
  9
$SURFTAB1
 70
     6
  9
$SURFTAB2
 70
     6
  9
$SURFTYPE
 70
     6
  9
$SURFU
 70
     6
  9
$SURFV
 70
     6
  9
$UCSNAME
  2

  9
$UCSORG
 10
0.0
 20
0.0
 30
0.0
  9
$UCSXDIR
 10
1.0
 20
0.0
 30
0.0
  9
$UCSYDIR
 10
0.0
 20
1.0
 30
0.0
  9
$PUCSNAME
  2

  9
$PUCSORG
 10
0.0
 20
0.0
 30
0.0
  9
$PUCSXDIR
 10
1.0
 20
0.0
 30
0.0
  9
$PUCSYDIR
 10
0.0
 20
1.0
 30
0.0
  9
$USERI1
 70
     0
  9
$USERI2
 70
     0
  9
$USERI3
 70
     0
  9
$USERI4
 70
     0
  9
$USERI5
 70
     0
  9
$USERR1
 40
0.0
  9
$USERR2
 40
0.0
  9
$USERR3
 40
0.0
  9
$USERR4
 40
0.0
  9
$USERR5
 40
0.0
  9
$WORLDVIEW
 70
     1
  9
$SHADEDGE
 70
     3
  9
$SHADEDIF
 70
    70
  9
$TILEMODE
 70
     1
  9
$MAXACTVP
 70
    16
  9
$PINSBASE
 10
0.0
 20
0.0
 30
0.0
  9
$PLIMCHECK
 70
     0
  9
$PEXTMIN
 10
1.000000E+20
 20
1.000000E+20
 30
1.000000E+20
  9
$PEXTMAX
 10
-1.000000E+20
 20
-1.000000E+20
 30
-1.000000E+20
  9
$PLIMMIN
 10
0.0
 20
0.0
  9
$PLIMMAX
 10
12.0
 20
9.0
  9
$UNITMODE
 70
     0
  9
$VISRETAIN
 70
     0
  9
$PLINEGEN
 70
     0
  9
$PSLTSCALE
 70
     0
  9
$TREEDEPTH
 70
  3020
  9
$PICKSTYLE
 70
     1
  9
$CMLSTYLE
  2
STANDARD
  9
$CMLJUST
 70
     0
  9
$CMLSCALE
 40
1.0
  9
$SAVEIMAGES
 70
     0
  0
ENDSEC
  0
SECTION
  2
CLASSES
  0
ENDSEC
  0
SECTION
  2
TABLES
  0
TABLE
  2
VPORT
  5
4D4
100
AcDbSymbolTable
 70
     2
  0
VPORT
  5
4F1
100
AcDbSymbolTableRecord
100
AcDbViewportTableRecord
  2
*ACTIVE
 70
     0
 10
0.0
 20
0.0
 11
1.0
 21
1.0
 12
7.330972
 22
3.865
 13
0.0
 23
0.0
 14
0.25
 24
0.25
 15
0.0
 25
0.0
 16
0.0
 26
0.0
 36
1.0
 17
0.0
 27
0.0
 37
0.0
 40
7.75
 41
1.894444
 42
50.0
 43
0.0
 44
0.0
 50
0.0
 51
0.0
 71
     0
 72
 10000
 73
     1
 74
     0
 75
     0
 76
     0
 77
     0
 78
     0
  0
ENDTAB
  0
TABLE
  2
LTYPE
  5
4D0
100
AcDbSymbolTable
 70
     4
  0
LTYPE
  5
4D1
100
AcDbSymbolTableRecord
100
AcDbLinetypeTableRecord
  2
BYBLOCK
 70
     0
  3

 72
    65
 73
     0
 40
0.0
  0
LTYPE
  5
14
100
AcDbSymbolTableRecord
100
AcDbLinetypeTableRecord
  2
BYLAYER
 70
     0
  3

 72
    65
 73
     0
 40
0.0
  0
LTYPE
  5
5
100
AcDbSymbolTableRecord
100
AcDbLinetypeTableRecord
  2
CONTINUOUS
 70
    64
  3
Solid line
 72
    65
 73
     0
 40
0.0
  0
LTYPE
  5
22
100
AcDbSymbolTableRecord
100
AcDbLinetypeTableRecord
  2
HIDDEN
 70
    64
  3
__ __ __ __ __ __ __ __ __ __ __ __ __ __ __ __
 72
    65
 73
     2
 40
0.375
 49
0.25
 74
     0
 49
-0.125
 74
     0
  0
LTYPE
  5
13
100
AcDbSymbolTableRecord
100
AcDbLinetypeTableRecord
  2
CENTER
 70
    64
  3
____ _ ____ _ ____ _ ____ _ ____ _ ____ _ ____ 
 72
    65
 73
     4
 40
2.0
 49
1.25
 74
     0
 49
-0.25
 74
     0
 49
0.25
 74
     0
 49
-0.25
 74
     0
  0
LTYPE
  5
39
100
AcDbSymbolTableRecord
100
AcDbLinetypeTableRecord
  2
DASHED
 70
    64
  3
__ __ __ __ __ __ __ __ __ __ __ __ __ __ __ __
 72
    65
 73
     2
 40
0.75
 49
0.5
 74
     0
 49
-0.25
 74
     0
  0
ENDTAB
  0
TABLE
  2
LAYER
  5
4CD
100
AcDbSymbolTable
 70
     6
  0
LAYER
  5
23A
100
AcDbSymbolTableRecord
100
AcDbLayerTableRecord
  2
0
 70
    64
 62
     7
  6
CONTINUOUS
  0
LAYER
  5
87
100
AcDbSymbolTableRecord
100
AcDbLayerTableRecord
  2
TEXT
 70
    64
 62
     3
  6
CONTINUOUS
  0
LAYER
  5
5E
100
AcDbSymbolTableRecord
100
AcDbLayerTableRecord
  2
DIM
 70
    64
 62
     4
  6
CONTINUOUS
  0
LAYER
  5
12
100
AcDbSymbolTableRecord
100
AcDbLayerTableRecord
  2
CEN
 70
    64
 62
     1
  6
CENTER
  0
LAYER
  5
20B
100
AcDbSymbolTableRecord
100
AcDbLayerTableRecord
  2
BORDER
 70
    64
 62
     5
  6
CONTINUOUS
  0
LAYER
  5
4
100
AcDbSymbolTableRecord
100
AcDbLayerTableRecord
  2
OBJ
 70
    64
 62
     7
  6
CONTINUOUS
  0
ENDTAB
  0
TABLE
  2
STYLE
  5
4CE
100
AcDbSymbolTable
 70
     4
  0
STYLE
  5
4CF
100
AcDbSymbolTableRecord
100
AcDbTextStyleTableRecord
  2
STANDARD
 70
     0
 40
0.0
 41
1.0
 50
0.0
 71
     0
 42
0.336612
  3
txt
  4

  0
STYLE
  5
220
100
AcDbSymbolTableRecord
100
AcDbTextStyleTableRecord
  2
SIMPLEX
 70
    64
 40
0.0
 41
1.0
 50
0.0
 71
     0
 42
1.086354
  3
C:\ACADWIN\FONTS\SIMPLEX.SHX
  4

  0
STYLE
  5
88
100
AcDbSymbolTableRecord
100
AcDbTextStyleTableRecord
  2
ROMANS
 70
    64
 40
0.0
 41
1.0
 50
0.0
 71
     0
 42
1.5875
  3
C:\ACADWIN\FONTS\ROMANS.SHX
  4

  0
STYLE
  5
351
100
AcDbSymbolTableRecord
100
AcDbTextStyleTableRecord
  2
ROMANC
 70
    64
 40
0.0
 41
1.0
 50
0.0
 71
     0
 42
0.2
  3
ROMANC
  4

  0
ENDTAB
  0
TABLE
  2
VIEW
  5
4D2
100
AcDbSymbolTable
 70
     0
  0
ENDTAB
  0
TABLE
  2
UCS
  5
4D3
100
AcDbSymbolTable
 70
     0
  0
ENDTAB
  0
TABLE
  2
APPID
  5
4D6
100
AcDbSymbolTable
 70
     1
  0
APPID
  5
44D
100
AcDbSymbolTableRecord
100
AcDbRegAppTableRecord
  2
ACAD
 70
    64
  0
ENDTAB
  0
TABLE
  2
DIMSTYLE
  5
4D7
100
AcDbSymbolTable
 70
     1
  0
DIMSTYLE
105
4DD
100
AcDbSymbolTableRecord
100
AcDbDimStyleTableRecord
  2
JOHN
 70
     0
  3

  4

  5

  6

  7

 40
1.0
 41
0.125
 42
0.0625
 43
0.38
 44
0.09
 45
0.0
 46
0.0
 47
0.0
 48
0.0
140
0.125
141
0.09
142
0.0
143
25.4
144
1.0
145
0.0
146
1.0
147
0.09
 71
     0
 72
     0
 73
     0
 74
     0
 75
     0
 76
     0
 77
     1
 78
     0
170
     0
171
     2
172
     0
173
     0
174
     1
175
     0
176
   256
177
   256
178
   256
270
     2
271
     4
272
     4
273
     2
274
     2
340
88
275
     0
280
     0
281
     0
282
     0
283
     1
284
     0
285
     0
286
     0
287
     5
288
     0
  0
ENDTAB
  0
TABLE
  2
BLOCK_RECORD
  5
1
100
AcDbSymbolTable
 70
     4
  0
BLOCK_RECORD
  5
2
100
AcDbSymbolTableRecord
100
AcDbBlockTableRecord
  2
*MODEL_SPACE
  0
BLOCK_RECORD
  5
4CA
100
AcDbSymbolTableRecord
100
AcDbBlockTableRecord
  2
*PAPER_SPACE
  0
BLOCK_RECORD
  5
20C
100
AcDbSymbolTableRecord
100
AcDbBlockTableRecord
  2
C-SIZE
  0
BLOCK_RECORD
  5
3D7
100
AcDbSymbolTableRecord
100
AcDbBlockTableRecord
  2
*X1
  0
BLOCK_RECORD
  5
44F
100
AcDbSymbolTableRecord
100
AcDbBlockTableRecord
  2
*X2
  0
BLOCK_RECORD
  5
323
100
AcDbSymbolTableRecord
100
AcDbBlockTableRecord
  2
OTITLE
  0
ENDTAB
  0
ENDSEC
  0
SECTION
  2
BLOCKS
  0
BLOCK
  5
4C8
100
AcDbEntity
  8
OBJ
100
AcDbBlockBegin
  2
*MODEL_SPACE
 70
     0
 10
0.0
 20
0.0
 30
0.0
  3
*MODEL_SPACE
  1

  0
ENDBLK
  5
4C9
100
AcDbEntity
  8
OBJ
100
AcDbBlockEnd
  0
BLOCK
  5
4CB
100
AcDbEntity
 67
     1
  8
OBJ
100
AcDbBlockBegin
  2
*PAPER_SPACE
 70
     0
 10
0.0
 20
0.0
 30
0.0
  3
*PAPER_SPACE
  1

  0
ENDBLK
  5
4CC
100
AcDbEntity
 67
     1
  8
OBJ
100
AcDbBlockEnd
  0
BLOCK
  5
239
100
AcDbEntity
  8
0
100
AcDbBlockBegin
  2
C-SIZE
 70
    64
 10
0.0
 20
0.0
 30
0.0
  3
C-SIZE
  1

  0
POLYLINE
  5
20D
100
AcDbEntity
  8
BORDER
100
AcDb2dPolyline
 66
     1
 10
0.0
 20
0.0
 30
0.0
 70
     1
 40
0.04
 41
0.04
  0
VERTEX
  5
20E
100
AcDbEntity
  8
BORDER
100
AcDbVertex
100
AcDb2dVertex
 10
0.0
 20
0.0
 30
0.0
  0
VERTEX
  5
20F
100
AcDbEntity
  8
BORDER
100
AcDbVertex
100
AcDb2dVertex
 10
20.96
 20
0.0
 30
0.0
  0
VERTEX
  5
210
100
AcDbEntity
  8
BORDER
100
AcDbVertex
100
AcDb2dVertex
 10
20.96
 20
15.46
 30
0.0
  0
VERTEX
  5
211
100
AcDbEntity
  8
BORDER
100
AcDbVertex
100
AcDb2dVertex
 10
0.0
 20
15.46
 30
0.0
  0
SEQEND
  5
212
100
AcDbEntity
  8
BORDER
  0
POLYLINE
  5
213
100
AcDbEntity
  8
BORDER
100
AcDb2dPolyline
 66
     1
 10
0.0
 20
0.0
 30
0.0
 40
0.02
 41
0.02
  0
VERTEX
  5
214
100
AcDbEntity
  8
BORDER
100
AcDbVertex
100
AcDb2dVertex
 10
16.9599
 20
15.085
 30
0.0
  0
VERTEX
  5
215
100
AcDbEntity
  8
BORDER
100
AcDbVertex
100
AcDb2dVertex
 10
20.96
 20
15.085
 30
0.0
  0
SEQEND
  5
216
100
AcDbEntity
  8
BORDER
  0
POLYLINE
  5
217
100
AcDbEntity
  8
BORDER
100
AcDb2dPolyline
 66
     1
 10
0.0
 20
0.0
 30
0.0
 40
0.02
 41
0.02
  0
VERTEX
  5
218
100
AcDbEntity
  8
BORDER
100
AcDbVertex
100
AcDb2dVertex
 10
16.9599
 20
14.835
 30
0.0
  0
VERTEX
  5
219
100
AcDbEntity
  8
BORDER
100
AcDbVertex
100
AcDb2dVertex
 10
20.96
 20
14.835
 30
0.0
  0
SEQEND
  5
21A
100
AcDbEntity
  8
BORDER
  0
POLYLINE
  5
21B
100
AcDbEntity
  8
BORDER
  6
CONTINUOUS
100
AcDb2dPolyline
 66
     1
 10
0.0
 20
0.0
 30
0.0
 40
0.02
 41
0.02
  0
VERTEX
  5
21C
100
AcDbEntity
  8
BORDER
  6
CONTINUOUS
100
AcDbVertex
100
AcDb2dVertex
 10
16.9599
 20
15.46
 30
0.0
  0
VERTEX
  5
21D
100
AcDbEntity
  8
BORDER
  6
CONTINUOUS
100
AcDbVertex
100
AcDb2dVertex
 10
16.959904
 20
14.585
 30
0.0
  0
SEQEND
  5
21E
100
AcDbEntity
  8
BORDER
  6
CONTINUOUS
  0
TEXT
  5
21F
100
AcDbEntity
  8
BORDER
100
AcDbText
 10
17.053209
 20
14.887336
 30
0.0
 40
0.125
  1
SYM
  7
SIMPLEX
 72
     1
 11
17.219876
 21
14.887336
 31
0.0
100
AcDbText
  0
POLYLINE
  5
221
100
AcDbEntity
  8
BORDER
  6
CONTINUOUS
100
AcDb2dPolyline
 66
     1
 10
0.0
 20
0.0
 30
0.0
 40
0.02
 41
0.02
  0
VERTEX
  5
222
100
AcDbEntity
  8
BORDER
  6
CONTINUOUS
100
AcDbVertex
100
AcDb2dVertex
 10
17.459902
 20
15.085
 30
0.0
  0
VERTEX
  5
223
100
AcDbEntity
  8
BORDER
  6
CONTINUOUS
100
AcDbVertex
100
AcDb2dVertex
 10
17.459904
 20
14.585
 30
0.0
  0
SEQEND
  5
224
100
AcDbEntity
  8
BORDER
  6
CONTINUOUS
  0
TEXT
  5
225
100
AcDbEntity
  8
BORDER
100
AcDbText
 10
18.250932
 20
15.1771
 30
0.0
 40
0.2
  1
REVISIONS
  7
SIMPLEX
 72
     1
 11
18.984265
 21
15.1771
 31
0.0
100
AcDbText
  0
TEXT
  5
226
100
AcDbEntity
  8
BORDER
100
AcDbText
 10
17.97334
 20
14.887336
 30
0.0
 40
0.125
  1
DESCRIPTION
  7
SIMPLEX
 72
     1
 11
18.547744
 21
14.887336
 31
0.0
100
AcDbText
  0
POLYLINE
  5
227
100
AcDbEntity
  8
BORDER
  6
CONTINUOUS
100
AcDb2dPolyline
 66
     1
 10
0.0
 20
0.0
 30
0.0
 40
0.02
 41
0.02
  0
VERTEX
  5
228
100
AcDbEntity
  8
BORDER
  6
CONTINUOUS
100
AcDbVertex
100
AcDb2dVertex
 10
19.709902
 20
15.085
 30
0.0
  0
VERTEX
  5
229
100
AcDbEntity
  8
BORDER
  6
CONTINUOUS
100
AcDbVertex
100
AcDb2dVertex
 10
19.709904
 20
14.585
 30
0.0
  0
SEQEND
  5
22A
100
AcDbEntity
  8
BORDER
  6
CONTINUOUS
  0
TEXT
  5
22B
100
AcDbEntity
  8
BORDER
100
AcDbText
 10
19.857874
 20
14.887336
 30
0.0
 40
0.125
  1
DATE
  7
SIMPLEX
 72
     1
 11
20.078112
 21
14.887336
 31
0.0
100
AcDbText
  0
POLYLINE
  5
22C
100
AcDbEntity
  8
BORDER
  6
CONTINUOUS
100
AcDb2dPolyline
 66
     1
 10
0.0
 20
0.0
 30
0.0
 40
0.02
 41
0.02
  0
VERTEX
  5
22D
100
AcDbEntity
  8
BORDER
  6
CONTINUOUS
100
AcDbVertex
100
AcDb2dVertex
 10
20.459902
 20
15.085
 30
0.0
  0
VERTEX
  5
22E
100
AcDbEntity
  8
BORDER
  6
CONTINUOUS
100
AcDbVertex
100
AcDb2dVertex
 10
20.459904
 20
14.585
 30
0.0
  0
SEQEND
  5
22F
100
AcDbEntity
  8
BORDER
  6
CONTINUOUS
  0
TEXT
  5
230
100
AcDbEntity
  8
BORDER
100
AcDbText
 10
20.535744
 20
14.887336
 30
0.0
 40
0.125
  1
APR
  7
SIMPLEX
 72
     1
 11
20.705387
 21
14.887336
 31
0.0
100
AcDbText
  0
POLYLINE
  5
231
100
AcDbEntity
  8
BORDER
  6
CONTINUOUS
100
AcDb2dPolyline
 66
     1
 10
0.0
 20
0.0
 30
0.0
  0
VERTEX
  5
232
100
AcDbEntity
  8
BORDER
  6
CONTINUOUS
100
AcDbVertex
100
AcDb2dVertex
 10
20.9599
 20
14.8343
 30
0.0
  0
VERTEX
  5
233
100
AcDbEntity
  8
BORDER
  6
CONTINUOUS
100
AcDbVertex
100
AcDb2dVertex
 10
20.9599
 20
14.8343
 30
0.0
  0
SEQEND
  5
234
100
AcDbEntity
  8
BORDER
  0
POLYLINE
  5
235
100
AcDbEntity
  8
BORDER
  6
CONTINUOUS
100
AcDb2dPolyline
 66
     1
 10
0.0
 20
0.0
 30
0.0
  0
VERTEX
  5
236
100
AcDbEntity
  8
BORDER
  6
CONTINUOUS
100
AcDbVertex
100
AcDb2dVertex
 10
20.9599
 20
14.8343
 30
0.0
  0
VERTEX
  5
237
100
AcDbEntity
  8
BORDER
  6
CONTINUOUS
100
AcDbVertex
100
AcDb2dVertex
 10
20.9599
 20
14.8343
 30
0.0
  0
SEQEND
  5
238
100
AcDbEntity
  8
BORDER
  0
ENDBLK
  5
23B
100
AcDbEntity
  8
0
100
AcDbBlockEnd
  0
BLOCK
  5
44B
100
AcDbEntity
  8
0
100
AcDbBlockBegin
  2
*X1
 70
    65
 10
0.0
 20
0.0
 30
0.0
  3
*X1
  1

  0
LINE
  5
3D8
100
AcDbEntity
  8
0
 62
     0
100
AcDbLine
 10
12.555748
 20
8.072691
 30
0.0
 11
12.644481
 21
8.161424
 31
0.0
  0
LINE
  5
3D9
100
AcDbEntity
  8
0
 62
     0
100
AcDbLine
 10
12.54879
 20
8.072804
 30
0.0
 11
12.643826
 21
8.16784
 31
0.0
  0
LINE
  5
3DA
100
AcDbEntity
  8
0
 62
     0
100
AcDbLine
 10
12.541634
 20
8.072719
 30
0.0
 11
12.641898
 21
8.172983
 31
0.0
  0
LINE
  5
3DB
100
AcDbEntity
  8
0
 62
     0
100
AcDbLine
 10
12.534261
 20
8.072417
 30
0.0
 11
12.636282
 21
8.174438
 31
0.0
  0
LINE
  5
3DC
100
AcDbEntity
  8
0
 62
     0
100
AcDbLine
 10
12.526648
 20
8.071876
 30
0.0
 11
12.630588
 21
8.175815
 31
0.0
  0
LINE
  5
3DD
100
AcDbEntity
  8
0
 62
     0
100
AcDbLine
 10
12.51877
 20
8.071068
 30
0.0
 11
12.624815
 21
8.177113
 31
0.0
  0
LINE
  5
3DE
100
AcDbEntity
  8
0
 62
     0
100
AcDbLine
 10
12.510593
 20
8.069962
 30
0.0
 11
12.61896
 21
8.178329
 31
0.0
  0
LINE
  5
3DF
100
AcDbEntity
  8
0
 62
     0
100
AcDbLine
 10
12.502075
 20
8.068516
 30
0.0
 11
12.570806
 21
8.137247
 31
0.0
  0
LINE
  5
3E0
100
AcDbEntity
  8
0
 62
     0
100
AcDbLine
 10
12.578466
 20
8.144906
 30
0.0
 11
12.61302
 21
8.17946
 31
0.0
  0
LINE
  5
3E1
100
AcDbEntity
  8
0
 62
     0
100
AcDbLine
 10
12.493163
 20
8.066675
 30
0.0
 11
12.561513
 21
8.135024
 31
0.0
  0
LINE
  5
3E2
100
AcDbEntity
  8
0
 62
     0
100
AcDbLine
 10
12.581599
 20
8.155111
 30
0.0
 11
12.606992
 21
8.180504
 31
0.0
  0
LINE
  5
3E3
100
AcDbEntity
  8
0
 62
     0
100
AcDbLine
 10
12.483785
 20
8.064368
 30
0.0
 11
12.554656
 21
8.135238
 31
0.0
  0
LINE
  5
3E4
100
AcDbEntity
  8
0
 62
     0
100
AcDbLine
 10
12.586006
 20
8.166589
 30
0.0
 11
12.600873
 21
8.181456
 31
0.0
  0
LINE
  5
3E5
100
AcDbEntity
  8
0
 62
     0
100
AcDbLine
 10
12.473841
 20
8.061495
 30
0.0
 11
12.547651
 21
8.135305
 31
0.0
  0
LINE
  5
3E6
100
AcDbEntity
  8
0
 62
     0
100
AcDbLine
 10
12.593831
 20
8.181485
 30
0.0
 11
12.59466
 21
8.182314
 31
0.0
  0
LINE
  5
3E7
100
AcDbEntity
  8
0
 62
     0
100
AcDbLine
 10
12.463187
 20
8.057912
 30
0.0
 11
12.540486
 21
8.13521
 31
0.0
  0
LINE
  5
3E8
100
AcDbEntity
  8
0
 62
     0
100
AcDbLine
 10
12.451596
 20
8.053392
 30
0.0
 11
12.53326
 21
8.135056
 31
0.0
  0
LINE
  5
3E9
100
AcDbEntity
  8
0
 62
     0
100
AcDbLine
 10
12.438678
 20
8.047545
 30
0.0
 11
12.527486
 21
8.136353
 31
0.0
  0
LINE
  5
3EA
100
AcDbEntity
  8
0
 62
     0
100
AcDbLine
 10
12.325758
 20
7.941696
 30
0.0
 11
12.331426
 21
7.947364
 31
0.0
  0
LINE
  5
3EB
100
AcDbEntity
  8
0
 62
     0
100
AcDbLine
 10
12.423628
 20
8.039566
 30
0.0
 11
12.522982
 21
8.13892
 31
0.0
  0
LINE
  5
3EC
100
AcDbEntity
  8
0
 62
     0
100
AcDbLine
 10
12.32115
 20
7.944159
 30
0.0
 11
12.34389
 21
7.9669
 31
0.0
  0
LINE
  5
3ED
100
AcDbEntity
  8
0
 62
     0
100
AcDbLine
 10
12.404092
 20
8.027101
 30
0.0
 11
12.519465
 21
8.142474
 31
0.0
  0
LINE
  5
3EE
100
AcDbEntity
  8
0
 62
     0
100
AcDbLine
 10
12.316542
 20
7.946622
 30
0.0
 11
12.516938
 21
8.147018
 31
0.0
  0
LINE
  5
3EF
100
AcDbEntity
  8
0
 62
     0
100
AcDbLine
 10
12.311934
 20
7.949085
 30
0.0
 11
12.51554
 21
8.152692
 31
0.0
  0
LINE
  5
3F0
100
AcDbEntity
  8
0
 62
     0
100
AcDbLine
 10
12.307326
 20
7.951548
 30
0.0
 11
12.513784
 21
8.158006
 31
0.0
  0
LINE
  5
3F1
100
AcDbEntity
  8
0
 62
     0
100
AcDbLine
 10
12.302718
 20
7.954011
 30
0.0
 11
12.511834
 21
8.163127
 31
0.0
  0
LINE
  5
3F2
100
AcDbEntity
  8
0
 62
     0
100
AcDbLine
 10
12.29811
 20
7.956474
 30
0.0
 11
12.509702
 21
8.168066
 31
0.0
  0
LINE
  5
3F3
100
AcDbEntity
  8
0
 62
     0
100
AcDbLine
 10
12.293502
 20
7.958937
 30
0.0
 11
12.507398
 21
8.172833
 31
0.0
  0
LINE
  5
3F4
100
AcDbEntity
  8
0
 62
     0
100
AcDbLine
 10
12.288894
 20
7.9614
 30
0.0
 11
12.504928
 21
8.177435
 31
0.0
  0
LINE
  5
3F5
100
AcDbEntity
  8
0
 62
     0
100
AcDbLine
 10
12.284286
 20
7.963863
 30
0.0
 11
12.434196
 21
8.113773
 31
0.0
  0
LINE
  5
3F6
100
AcDbEntity
  8
0
 62
     0
100
AcDbLine
 10
12.452945
 20
8.132522
 30
0.0
 11
12.502299
 21
8.181877
 31
0.0
  0
LINE
  5
3F7
100
AcDbEntity
  8
0
 62
     0
100
AcDbLine
 10
12.279678
 20
7.966326
 30
0.0
 11
12.422084
 21
8.108732
 31
0.0
  0
LINE
  5
3F8
100
AcDbEntity
  8
0
 62
     0
100
AcDbLine
 10
12.452286
 20
8.138935
 30
0.0
 11
12.494687
 21
8.181336
 31
0.0
  0
LINE
  5
3F9
100
AcDbEntity
  8
0
 62
     0
100
AcDbLine
 10
12.275069
 20
7.968789
 30
0.0
 11
12.410965
 21
8.104685
 31
0.0
  0
LINE
  5
3FA
100
AcDbEntity
  8
0
 62
     0
100
AcDbLine
 10
12.451707
 20
8.145426
 30
0.0
 11
12.486256
 21
8.179976
 31
0.0
  0
LINE
  5
3FB
100
AcDbEntity
  8
0
 62
     0
100
AcDbLine
 10
12.270461
 20
7.971252
 30
0.0
 11
12.40432
 21
8.105111
 31
0.0
  0
LINE
  5
3FC
100
AcDbEntity
  8
0
 62
     0
100
AcDbLine
 10
12.451534
 20
8.152324
 30
0.0
 11
12.47757
 21
8.17836
 31
0.0
  0
LINE
  5
3FD
100
AcDbEntity
  8
0
 62
     0
100
AcDbLine
 10
12.265853
 20
7.973715
 30
0.0
 11
12.399299
 21
8.107161
 31
0.0
  0
LINE
  5
3FE
100
AcDbEntity
  8
0
 62
     0
100
AcDbLine
 10
12.451768
 20
8.15963
 30
0.0
 11
12.468599
 21
8.17646
 31
0.0
  0
LINE
  5
3FF
100
AcDbEntity
  8
0
 62
     0
100
AcDbLine
 10
12.261245
 20
7.976178
 30
0.0
 11
12.395344
 21
8.110277
 31
0.0
  0
LINE
  5
400
100
AcDbEntity
  8
0
 62
     0
100
AcDbLine
 10
12.452494
 20
8.167427
 30
0.0
 11
12.459308
 21
8.174241
 31
0.0
  0
LINE
  5
401
100
AcDbEntity
  8
0
 62
     0
100
AcDbLine
 10
12.256637
 20
7.978641
 30
0.0
 11
12.306461
 21
8.028465
 31
0.0
  0
LINE
  5
402
100
AcDbEntity
  8
0
 62
     0
100
AcDbLine
 10
12.342526
 20
8.06453
 30
0.0
 11
12.392351
 21
8.114355
 31
0.0
  0
LINE
  5
403
100
AcDbEntity
  8
0
 62
     0
100
AcDbLine
 10
12.252029
 20
7.981104
 30
0.0
 11
12.299849
 21
8.028924
 31
0.0
  0
LINE
  5
404
100
AcDbEntity
  8
0
 62
     0
100
AcDbLine
 10
12.342068
 20
8.071143
 30
0.0
 11
12.389128
 21
8.118203
 31
0.0
  0
LINE
  5
405
100
AcDbEntity
  8
0
 62
     0
100
AcDbLine
 10
12.247421
 20
7.983567
 30
0.0
 11
12.294845
 21
8.030991
 31
0.0
  0
LINE
  5
406
100
AcDbEntity
  8
0
 62
     0
100
AcDbLine
 10
12.34
 20
8.076146
 30
0.0
 11
12.385744
 21
8.12189
 31
0.0
  0
LINE
  5
407
100
AcDbEntity
  8
0
 62
     0
100
AcDbLine
 10
12.242813
 20
7.98603
 30
0.0
 11
12.29048
 21
8.033697
 31
0.0
  0
LINE
  5
408
100
AcDbEntity
  8
0
 62
     0
100
AcDbLine
 10
12.337295
 20
8.080512
 30
0.0
 11
12.382218
 21
8.125435
 31
0.0
  0
LINE
  5
409
100
AcDbEntity
  8
0
 62
     0
100
AcDbLine
 10
12.238205
 20
7.988494
 30
0.0
 11
12.285732
 21
8.03602
 31
0.0
  0
LINE
  5
40A
100
AcDbEntity
  8
0
 62
     0
100
AcDbLine
 10
12.334971
 20
8.08526
 30
0.0
 11
12.37855
 21
8.128838
 31
0.0
  0
LINE
  5
40B
100
AcDbEntity
  8
0
 62
     0
100
AcDbLine
 10
12.233597
 20
7.990957
 30
0.0
 11
12.280812
 21
8.038172
 31
0.0
  0
LINE
  5
40C
100
AcDbEntity
  8
0
 62
     0
100
AcDbLine
 10
12.33282
 20
8.090179
 30
0.0
 11
12.374739
 21
8.132098
 31
0.0
  0
LINE
  5
40D
100
AcDbEntity
  8
0
 62
     0
100
AcDbLine
 10
12.228989
 20
7.99342
 30
0.0
 11
12.275712
 21
8.040142
 31
0.0
  0
LINE
  5
40E
100
AcDbEntity
  8
0
 62
     0
100
AcDbLine
 10
12.330849
 20
8.09528
 30
0.0
 11
12.370784
 21
8.135214
 31
0.0
  0
LINE
  5
40F
100
AcDbEntity
  8
0
 62
     0
100
AcDbLine
 10
12.236658
 20
8.008159
 30
0.0
 11
12.27042
 21
8.041921
 31
0.0
  0
LINE
  5
410
100
AcDbEntity
  8
0
 62
     0
100
AcDbLine
 10
12.329071
 20
8.100572
 30
0.0
 11
12.362832
 21
8.134334
 31
0.0
  0
LINE
  5
411
100
AcDbEntity
  8
0
 62
     0
100
AcDbLine
 10
12.249191
 20
8.027763
 30
0.0
 11
12.264923
 21
8.043495
 31
0.0
  0
LINE
  5
412
100
AcDbEntity
  8
0
 62
     0
100
AcDbLine
 10
12.327497
 20
8.106069
 30
0.0
 11
12.343228
 21
8.121801
 31
0.0
  0
LINE
  5
413
100
AcDbEntity
  8
0
 62
     0
100
AcDbLine
 10
12.562522
 20
8.072394
 30
0.0
 11
12.64481
 21
8.154682
 31
0.0
  0
LINE
  5
414
100
AcDbEntity
  8
0
 62
     0
100
AcDbLine
 10
12.569126
 20
8.071927
 30
0.0
 11
12.644761
 21
8.147562
 31
0.0
  0
LINE
  5
415
100
AcDbEntity
  8
0
 62
     0
100
AcDbLine
 10
12.575571
 20
8.071301
 30
0.0
 11
12.644259
 21
8.139989
 31
0.0
  0
LINE
  5
416
100
AcDbEntity
  8
0
 62
     0
100
AcDbLine
 10
12.581867
 20
8.070526
 30
0.0
 11
12.643461
 21
8.13212
 31
0.0
  0
LINE
  5
417
100
AcDbEntity
  8
0
 62
     0
100
AcDbLine
 10
12.588023
 20
8.069611
 30
0.0
 11
12.644888
 21
8.126476
 31
0.0
  0
LINE
  5
418
100
AcDbEntity
  8
0
 62
     0
100
AcDbLine
 10
12.594046
 20
8.068563
 30
0.0
 11
12.647544
 21
8.122061
 31
0.0
  0
LINE
  5
419
100
AcDbEntity
  8
0
 62
     0
100
AcDbLine
 10
12.599943
 20
8.067389
 30
0.0
 11
12.651178
 21
8.118623
 31
0.0
  0
LINE
  5
41A
100
AcDbEntity
  8
0
 62
     0
100
AcDbLine
 10
12.60572
 20
8.066095
 30
0.0
 11
12.655812
 21
8.116187
 31
0.0
  0
LINE
  5
41B
100
AcDbEntity
  8
0
 62
     0
100
AcDbLine
 10
12.611382
 20
8.064686
 30
0.0
 11
12.660948
 21
8.114252
 31
0.0
  0
LINE
  5
41C
100
AcDbEntity
  8
0
 62
     0
100
AcDbLine
 10
12.616934
 20
8.063167
 30
0.0
 11
12.66601
 21
8.112242
 31
0.0
  0
LINE
  5
41D
100
AcDbEntity
  8
0
 62
     0
100
AcDbLine
 10
12.622381
 20
8.061542
 30
0.0
 11
12.670999
 21
8.110161
 31
0.0
  0
LINE
  5
41E
100
AcDbEntity
  8
0
 62
     0
100
AcDbLine
 10
12.627725
 20
8.059815
 30
0.0
 11
12.675918
 21
8.108008
 31
0.0
  0
LINE
  5
41F
100
AcDbEntity
  8
0
 62
     0
100
AcDbLine
 10
12.63297
 20
8.05799
 30
0.0
 11
12.6808
 21
8.105819
 31
0.0
  0
LINE
  5
420
100
AcDbEntity
  8
0
 62
     0
100
AcDbLine
 10
12.638121
 20
8.056069
 30
0.0
 11
12.686636
 21
8.104584
 31
0.0
  0
LINE
  5
421
100
AcDbEntity
  8
0
 62
     0
100
AcDbLine
 10
12.643178
 20
8.054055
 30
0.0
 11
12.695413
 21
8.10629
 31
0.0
  0
LINE
  5
422
100
AcDbEntity
  8
0
 62
     0
100
AcDbLine
 10
12.70668
 20
8.117557
 30
0.0
 11
12.718973
 21
8.12985
 31
0.0
  0
LINE
  5
423
100
AcDbEntity
  8
0
 62
     0
100
AcDbLine
 10
12.648146
 20
8.051952
 30
0.0
 11
12.731647
 21
8.135453
 31
0.0
  0
LINE
  5
424
100
AcDbEntity
  8
0
 62
     0
100
AcDbLine
 10
12.653026
 20
8.049761
 30
0.0
 11
12.736076
 21
8.132811
 31
0.0
  0
LINE
  5
425
100
AcDbEntity
  8
0
 62
     0
100
AcDbLine
 10
12.65782
 20
8.047484
 30
0.0
 11
12.740452
 21
8.130116
 31
0.0
  0
LINE
  5
426
100
AcDbEntity
  8
0
 62
     0
100
AcDbLine
 10
12.662531
 20
8.045123
 30
0.0
 11
12.744776
 21
8.127369
 31
0.0
  0
LINE
  5
427
100
AcDbEntity
  8
0
 62
     0
100
AcDbLine
 10
12.667159
 20
8.042681
 30
0.0
 11
12.749047
 21
8.124569
 31
0.0
  0
LINE
  5
428
100
AcDbEntity
  8
0
 62
     0
100
AcDbLine
 10
12.671708
 20
8.040158
 30
0.0
 11
12.753267
 21
8.121717
 31
0.0
  0
LINE
  5
429
100
AcDbEntity
  8
0
 62
     0
100
AcDbLine
 10
12.676177
 20
8.037557
 30
0.0
 11
12.757435
 21
8.118814
 31
0.0
  0
LINE
  5
42A
100
AcDbEntity
  8
0
 62
     0
100
AcDbLine
 10
12.680569
 20
8.034878
 30
0.0
 11
12.761552
 21
8.11586
 31
0.0
  0
LINE
  5
42B
100
AcDbEntity
  8
0
 62
     0
100
AcDbLine
 10
12.684885
 20
8.032122
 30
0.0
 11
12.765619
 21
8.112856
 31
0.0
  0
LINE
  5
42C
100
AcDbEntity
  8
0
 62
     0
100
AcDbLine
 10
12.689125
 20
8.029291
 30
0.0
 11
12.769635
 21
8.109801
 31
0.0
  0
LINE
  5
42D
100
AcDbEntity
  8
0
 62
     0
100
AcDbLine
 10
12.69329
 20
8.026385
 30
0.0
 11
12.767223
 21
8.100318
 31
0.0
  0
LINE
  5
42E
100
AcDbEntity
  8
0
 62
     0
100
AcDbLine
 10
12.697382
 20
8.023406
 30
0.0
 11
12.763122
 21
8.089146
 31
0.0
  0
LINE
  5
42F
100
AcDbEntity
  8
0
 62
     0
100
AcDbLine
 10
12.701401
 20
8.020354
 30
0.0
 11
12.75546
 21
8.074414
 31
0.0
  0
LINE
  5
430
100
AcDbEntity
  8
0
 62
     0
100
AcDbLine
 10
12.705347
 20
8.017229
 30
0.0
 11
12.753759
 21
8.065641
 31
0.0
  0
LINE
  5
431
100
AcDbEntity
  8
0
 62
     0
100
AcDbLine
 10
12.709221
 20
8.014032
 30
0.0
 11
12.754995
 21
8.059806
 31
0.0
  0
LINE
  5
432
100
AcDbEntity
  8
0
 62
     0
100
AcDbLine
 10
12.713024
 20
8.010764
 30
0.0
 11
12.757522
 21
8.055262
 31
0.0
  0
LINE
  5
433
100
AcDbEntity
  8
0
 62
     0
100
AcDbLine
 10
12.716756
 20
8.007425
 30
0.0
 11
12.760986
 21
8.051655
 31
0.0
  0
LINE
  5
434
100
AcDbEntity
  8
0
 62
     0
100
AcDbLine
 10
12.720417
 20
8.004014
 30
0.0
 11
12.764622
 21
8.04822
 31
0.0
  0
LINE
  5
435
100
AcDbEntity
  8
0
 62
     0
100
AcDbLine
 10
12.724007
 20
8.000533
 30
0.0
 11
12.768201
 21
8.044728
 31
0.0
  0
LINE
  5
436
100
AcDbEntity
  8
0
 62
     0
100
AcDbLine
 10
12.727526
 20
7.996981
 30
0.0
 11
12.771724
 21
8.041179
 31
0.0
  0
LINE
  5
437
100
AcDbEntity
  8
0
 62
     0
100
AcDbLine
 10
12.730974
 20
7.993359
 30
0.0
 11
12.77519
 21
8.037574
 31
0.0
  0
LINE
  5
438
100
AcDbEntity
  8
0
 62
     0
100
AcDbLine
 10
12.734352
 20
7.989665
 30
0.0
 11
12.778608
 21
8.033922
 31
0.0
  0
LINE
  5
439
100
AcDbEntity
  8
0
 62
     0
100
AcDbLine
 10
12.737659
 20
7.985901
 30
0.0
 11
12.782603
 21
8.030845
 31
0.0
  0
LINE
  5
43A
100
AcDbEntity
  8
0
 62
     0
100
AcDbLine
 10
12.740894
 20
7.982065
 30
0.0
 11
12.787675
 21
8.028847
 31
0.0
  0
LINE
  5
43B
100
AcDbEntity
  8
0
 62
     0
100
AcDbLine
 10
12.744058
 20
7.978158
 30
0.0
 11
12.794419
 21
8.02852
 31
0.0
  0
LINE
  5
43C
100
AcDbEntity
  8
0
 62
     0
100
AcDbLine
 10
12.747149
 20
7.974178
 30
0.0
 11
12.807464
 21
8.034494
 31
0.0
  0
LINE
  5
43D
100
AcDbEntity
  8
0
 62
     0
100
AcDbLine
 10
12.750168
 20
7.970126
 30
0.0
 11
12.81991
 21
8.039868
 31
0.0
  0
LINE
  5
43E
100
AcDbEntity
  8
0
 62
     0
100
AcDbLine
 10
12.753113
 20
7.966001
 30
0.0
 11
12.830302
 21
8.043189
 31
0.0
  0
LINE
  5
43F
100
AcDbEntity
  8
0
 62
     0
100
AcDbLine
 10
12.755985
 20
7.961801
 30
0.0
 11
12.836595
 21
8.042411
 31
0.0
  0
LINE
  5
440
100
AcDbEntity
  8
0
 62
     0
100
AcDbLine
 10
12.758781
 20
7.957526
 30
0.0
 11
12.839627
 21
8.038372
 31
0.0
  0
LINE
  5
441
100
AcDbEntity
  8
0
 62
     0
100
AcDbLine
 10
12.761502
 20
7.953176
 30
0.0
 11
12.842608
 21
8.034282
 31
0.0
  0
LINE
  5
442
100
AcDbEntity
  8
0
 62
     0
100
AcDbLine
 10
12.764145
 20
7.948748
 30
0.0
 11
12.845538
 21
8.030141
 31
0.0
  0
LINE
  5
443
100
AcDbEntity
  8
0
 62
     0
100
AcDbLine
 10
12.766711
 20
7.944243
 30
0.0
 11
12.848418
 21
8.025949
 31
0.0
  0
LINE
  5
444
100
AcDbEntity
  8
0
 62
     0
100
AcDbLine
 10
12.771947
 20
7.942408
 30
0.0
 11
12.851245
 21
8.021706
 31
0.0
  0
LINE
  5
445
100
AcDbEntity
  8
0
 62
     0
100
AcDbLine
 10
12.787138
 20
7.950527
 30
0.0
 11
12.854021
 21
8.017411
 31
0.0
  0
LINE
  5
446
100
AcDbEntity
  8
0
 62
     0
100
AcDbLine
 10
12.802328
 20
7.958647
 30
0.0
 11
12.856745
 21
8.013063
 31
0.0
  0
LINE
  5
447
100
AcDbEntity
  8
0
 62
     0
100
AcDbLine
 10
12.817519
 20
7.966766
 30
0.0
 11
12.859415
 21
8.008663
 31
0.0
  0
LINE
  5
448
100
AcDbEntity
  8
0
 62
     0
100
AcDbLine
 10
12.83271
 20
7.974886
 30
0.0
 11
12.862032
 21
8.004208
 31
0.0
  0
LINE
  5
449
100
AcDbEntity
  8
0
 62
     0
100
AcDbLine
 10
12.8479
 20
7.983006
 30
0.0
 11
12.864595
 21
7.9997
 31
0.0
  0
LINE
  5
44A
100
AcDbEntity
  8
0
 62
     0
100
AcDbLine
 10
12.863091
 20
7.991125
 30
0.0
 11
12.867103
 21
7.995137
 31
0.0
  0
ENDBLK
  5
44C
100
AcDbEntity
  8
0
100
AcDbBlockEnd
  0
BLOCK
  5
4C3
100
AcDbEntity
  8
0
100
AcDbBlockBegin
  2
*X2
 70
    65
 10
0.0
 20
0.0
 30
0.0
  3
*X2
  1

  0
LINE
  5
450
100
AcDbEntity
  8
0
 62
     0
100
AcDbLine
 10
12.45167
 20
7.487781
 30
0.0
 11
12.536948
 21
7.573058
 31
0.0
  0
LINE
  5
451
100
AcDbEntity
  8
0
 62
     0
100
AcDbLine
 10
12.451538
 20
7.49472
 30
0.0
 11
12.530267
 21
7.573448
 31
0.0
  0
LINE
  5
452
100
AcDbEntity
  8
0
 62
     0
100
AcDbLine
 10
12.451821
 20
7.502073
 30
0.0
 11
12.52375
 21
7.574002
 31
0.0
  0
LINE
  5
453
100
AcDbEntity
  8
0
 62
     0
100
AcDbLine
 10
12.45293
 20
7.510253
 30
0.0
 11
12.517386
 21
7.57471
 31
0.0
  0
LINE
  5
454
100
AcDbEntity
  8
0
 62
     0
100
AcDbLine
 10
12.452326
 20
7.51672
 30
0.0
 11
12.511167
 21
7.575561
 31
0.0
  0
LINE
  5
455
100
AcDbEntity
  8
0
 62
     0
100
AcDbLine
 10
12.45018
 20
7.521645
 30
0.0
 11
12.505083
 21
7.576549
 31
0.0
  0
LINE
  5
456
100
AcDbEntity
  8
0
 62
     0
100
AcDbLine
 10
12.446986
 20
7.525522
 30
0.0
 11
12.499129
 21
7.577666
 31
0.0
  0
LINE
  5
457
100
AcDbEntity
  8
0
 62
     0
100
AcDbLine
 10
12.442829
 20
7.528437
 30
0.0
 11
12.493297
 21
7.578905
 31
0.0
  0
LINE
  5
458
100
AcDbEntity
  8
0
 62
     0
100
AcDbLine
 10
12.43778
 20
7.530458
 30
0.0
 11
12.487583
 21
7.580262
 31
0.0
  0
LINE
  5
459
100
AcDbEntity
  8
0
 62
     0
100
AcDbLine
 10
12.432684
 20
7.532434
 30
0.0
 11
12.481981
 21
7.581731
 31
0.0
  0
LINE
  5
45A
100
AcDbEntity
  8
0
 62
     0
100
AcDbLine
 10
12.427661
 20
7.534482
 30
0.0
 11
12.476486
 21
7.583308
 31
0.0
  0
LINE
  5
45B
100
AcDbEntity
  8
0
 62
     0
100
AcDbLine
 10
12.42271
 20
7.536602
 30
0.0
 11
12.471096
 21
7.584988
 31
0.0
  0
LINE
  5
45C
100
AcDbEntity
  8
0
 62
     0
100
AcDbLine
 10
12.417829
 20
7.538792
 30
0.0
 11
12.465805
 21
7.586768
 31
0.0
  0
LINE
  5
45D
100
AcDbEntity
  8
0
 62
     0
100
AcDbLine
 10
12.412625
 20
7.540659
 30
0.0
 11
12.460611
 21
7.588646
 31
0.0
  0
LINE
  5
45E
100
AcDbEntity
  8
0
 62
     0
100
AcDbLine
 10
12.405677
 20
7.540783
 30
0.0
 11
12.455512
 21
7.590617
 31
0.0
  0
LINE
  5
45F
100
AcDbEntity
  8
0
 62
     0
100
AcDbLine
 10
12.366783
 20
7.50896
 30
0.0
 11
12.450503
 21
7.592679
 31
0.0
  0
LINE
  5
460
100
AcDbEntity
  8
0
 62
     0
100
AcDbLine
 10
12.362329
 20
7.511576
 30
0.0
 11
12.445583
 21
7.59483
 31
0.0
  0
LINE
  5
461
100
AcDbEntity
  8
0
 62
     0
100
AcDbLine
 10
12.357928
 20
7.514247
 30
0.0
 11
12.440749
 21
7.597068
 31
0.0
  0
LINE
  5
462
100
AcDbEntity
  8
0
 62
     0
100
AcDbLine
 10
12.353581
 20
7.51697
 30
0.0
 11
12.436
 21
7.59939
 31
0.0
  0
LINE
  5
463
100
AcDbEntity
  8
0
 62
     0
100
AcDbLine
 10
12.349286
 20
7.519746
 30
0.0
 11
12.431334
 21
7.601795
 31
0.0
  0
LINE
  5
464
100
AcDbEntity
  8
0
 62
     0
100
AcDbLine
 10
12.345042
 20
7.522574
 30
0.0
 11
12.426749
 21
7.604281
 31
0.0
  0
LINE
  5
465
100
AcDbEntity
  8
0
 62
     0
100
AcDbLine
 10
12.340851
 20
7.525453
 30
0.0
 11
12.422243
 21
7.606846
 31
0.0
  0
LINE
  5
466
100
AcDbEntity
  8
0
 62
     0
100
AcDbLine
 10
12.33671
 20
7.528384
 30
0.0
 11
12.417816
 21
7.60949
 31
0.0
  0
LINE
  5
467
100
AcDbEntity
  8
0
 62
     0
100
AcDbLine
 10
12.33262
 20
7.531365
 30
0.0
 11
12.413465
 21
7.61221
 31
0.0
  0
LINE
  5
468
100
AcDbEntity
  8
0
 62
     0
100
AcDbLine
 10
12.328581
 20
7.534397
 30
0.0
 11
12.409191
 21
7.615007
 31
0.0
  0
LINE
  5
469
100
AcDbEntity
  8
0
 62
     0
100
AcDbLine
 10
12.327803
 20
7.54069
 30
0.0
 11
12.404991
 21
7.617878
 31
0.0
  0
LINE
  5
46A
100
AcDbEntity
  8
0
 62
     0
100
AcDbLine
 10
12.331124
 20
7.551082
 30
0.0
 11
12.400865
 21
7.620824
 31
0.0
  0
LINE
  5
46B
100
AcDbEntity
  8
0
 62
     0
100
AcDbLine
 10
12.336498
 20
7.563527
 30
0.0
 11
12.396813
 21
7.623842
 31
0.0
  0
LINE
  5
46C
100
AcDbEntity
  8
0
 62
     0
100
AcDbLine
 10
12.342472
 20
7.576572
 30
0.0
 11
12.392834
 21
7.626934
 31
0.0
  0
LINE
  5
46D
100
AcDbEntity
  8
0
 62
     0
100
AcDbLine
 10
12.342145
 20
7.583316
 30
0.0
 11
12.388926
 21
7.630098
 31
0.0
  0
LINE
  5
46E
100
AcDbEntity
  8
0
 62
     0
100
AcDbLine
 10
12.340146
 20
7.588389
 30
0.0
 11
12.38509
 21
7.633333
 31
0.0
  0
LINE
  5
46F
100
AcDbEntity
  8
0
 62
     0
100
AcDbLine
 10
12.33707
 20
7.592384
 30
0.0
 11
12.381326
 21
7.63664
 31
0.0
  0
LINE
  5
470
100
AcDbEntity
  8
0
 62
     0
100
AcDbLine
 10
12.333417
 20
7.595802
 30
0.0
 11
12.377633
 21
7.640017
 31
0.0
  0
LINE
  5
471
100
AcDbEntity
  8
0
 62
     0
100
AcDbLine
 10
12.329812
 20
7.599268
 30
0.0
 11
12.37401
 21
7.643466
 31
0.0
  0
LINE
  5
472
100
AcDbEntity
  8
0
 62
     0
100
AcDbLine
 10
12.326264
 20
7.60279
 30
0.0
 11
12.370458
 21
7.646985
 31
0.0
  0
LINE
  5
473
100
AcDbEntity
  8
0
 62
     0
100
AcDbLine
 10
12.322772
 20
7.606369
 30
0.0
 11
12.366977
 21
7.650575
 31
0.0
  0
LINE
  5
474
100
AcDbEntity
  8
0
 62
     0
100
AcDbLine
 10
12.319336
 20
7.610005
 30
0.0
 11
12.363567
 21
7.654236
 31
0.0
  0
LINE
  5
475
100
AcDbEntity
  8
0
 62
     0
100
AcDbLine
 10
12.31573
 20
7.61347
 30
0.0
 11
12.360228
 21
7.657967
 31
0.0
  0
LINE
  5
476
100
AcDbEntity
  8
0
 62
     0
100
AcDbLine
 10
12.311186
 20
7.615997
 30
0.0
 11
12.356959
 21
7.66177
 31
0.0
  0
LINE
  5
477
100
AcDbEntity
  8
0
 62
     0
100
AcDbLine
 10
12.305351
 20
7.617233
 30
0.0
 11
12.353763
 21
7.665645
 31
0.0
  0
LINE
  5
478
100
AcDbEntity
  8
0
 62
     0
100
AcDbLine
 10
12.296578
 20
7.615531
 30
0.0
 11
12.350638
 21
7.669591
 31
0.0
  0
LINE
  5
479
100
AcDbEntity
  8
0
 62
     0
100
AcDbLine
 10
12.281846
 20
7.60787
 30
0.0
 11
12.347586
 21
7.67361
 31
0.0
  0
LINE
  5
47A
100
AcDbEntity
  8
0
 62
     0
100
AcDbLine
 10
12.270673
 20
7.603769
 30
0.0
 11
12.344606
 21
7.677701
 31
0.0
  0
LINE
  5
47B
100
AcDbEntity
  8
0
 62
     0
100
AcDbLine
 10
12.26119
 20
7.601357
 30
0.0
 11
12.341701
 21
7.681867
 31
0.0
  0
LINE
  5
47C
100
AcDbEntity
  8
0
 62
     0
100
AcDbLine
 10
12.258136
 20
7.605373
 30
0.0
 11
12.338869
 21
7.686107
 31
0.0
  0
LINE
  5
47D
100
AcDbEntity
  8
0
 62
     0
100
AcDbLine
 10
12.255131
 20
7.60944
 30
0.0
 11
12.336114
 21
7.690422
 31
0.0
  0
LINE
  5
47E
100
AcDbEntity
  8
0
 62
     0
100
AcDbLine
 10
12.252177
 20
7.613557
 30
0.0
 11
12.333435
 21
7.694814
 31
0.0
  0
LINE
  5
47F
100
AcDbEntity
  8
0
 62
     0
100
AcDbLine
 10
12.249274
 20
7.617725
 30
0.0
 11
12.330833
 21
7.699284
 31
0.0
  0
LINE
  5
480
100
AcDbEntity
  8
0
 62
     0
100
AcDbLine
 10
12.246423
 20
7.621944
 30
0.0
 11
12.32831
 21
7.703832
 31
0.0
  0
LINE
  5
481
100
AcDbEntity
  8
0
 62
     0
100
AcDbLine
 10
12.243623
 20
7.626216
 30
0.0
 11
12.316228
 21
7.698821
 31
0.0
  0
LINE
  5
482
100
AcDbEntity
  8
0
 62
     0
100
AcDbLine
 10
12.240875
 20
7.630539
 30
0.0
 11
12.301038
 21
7.690701
 31
0.0
  0
LINE
  5
483
100
AcDbEntity
  8
0
 62
     0
100
AcDbLine
 10
12.23818
 20
7.634915
 30
0.0
 11
12.285847
 21
7.682582
 31
0.0
  0
LINE
  5
484
100
AcDbEntity
  8
0
 62
     0
100
AcDbLine
 10
12.235539
 20
7.639345
 30
0.0
 11
12.270656
 21
7.674462
 31
0.0
  0
LINE
  5
485
100
AcDbEntity
  8
0
 62
     0
100
AcDbLine
 10
12.232951
 20
7.643828
 30
0.0
 11
12.255466
 21
7.666343
 31
0.0
  0
LINE
  5
486
100
AcDbEntity
  8
0
 62
     0
100
AcDbLine
 10
12.230417
 20
7.648366
 30
0.0
 11
12.240275
 21
7.658223
 31
0.0
  0
LINE
  5
487
100
AcDbEntity
  8
0
 62
     0
100
AcDbLine
 10
12.452155
 20
7.481194
 30
0.0
 11
12.543804
 21
7.572844
 31
0.0
  0
LINE
  5
488
100
AcDbEntity
  8
0
 62
     0
100
AcDbLine
 10
12.452947
 20
7.474915
 30
0.0
 11
12.550851
 21
7.572819
 31
0.0
  0
LINE
  5
489
100
AcDbEntity
  8
0
 62
     0
100
AcDbLine
 10
12.457051
 20
7.471948
 30
0.0
 11
12.558105
 21
7.573002
 31
0.0
  0
LINE
  5
48A
100
AcDbEntity
  8
0
 62
     0
100
AcDbLine
 10
12.462703
 20
7.470529
 30
0.0
 11
12.565585
 21
7.573411
 31
0.0
  0
LINE
  5
48B
100
AcDbEntity
  8
0
 62
     0
100
AcDbLine
 10
12.468432
 20
7.469187
 30
0.0
 11
12.573316
 21
7.574071
 31
0.0
  0
LINE
  5
48C
100
AcDbEntity
  8
0
 62
     0
100
AcDbLine
 10
12.474243
 20
7.467927
 30
0.0
 11
12.581328
 21
7.575012
 31
0.0
  0
LINE
  5
48D
100
AcDbEntity
  8
0
 62
     0
100
AcDbLine
 10
12.480137
 20
7.46675
 30
0.0
 11
12.589656
 21
7.576269
 31
0.0
  0
LINE
  5
48E
100
AcDbEntity
  8
0
 62
     0
100
AcDbLine
 10
12.486117
 20
7.465659
 30
0.0
 11
12.516061
 21
7.495603
 31
0.0
  0
LINE
  5
48F
100
AcDbEntity
  8
0
 62
     0
100
AcDbLine
 10
12.530668
 20
7.51021
 30
0.0
 11
12.598347
 21
7.577889
 31
0.0
  0
LINE
  5
490
100
AcDbEntity
  8
0
 62
     0
100
AcDbLine
 10
12.492186
 20
7.464657
 30
0.0
 11
12.513004
 21
7.485475
 31
0.0
  0
LINE
  5
491
100
AcDbEntity
  8
0
 62
     0
100
AcDbLine
 10
12.538
 20
7.510471
 30
0.0
 11
12.607464
 21
7.579934
 31
0.0
  0
LINE
  5
492
100
AcDbEntity
  8
0
 62
     0
100
AcDbLine
 10
12.498348
 20
7.463748
 30
0.0
 11
12.507419
 21
7.472818
 31
0.0
  0
LINE
  5
493
100
AcDbEntity
  8
0
 62
     0
100
AcDbLine
 10
12.544922
 20
7.510322
 30
0.0
 11
12.617088
 21
7.582487
 31
0.0
  0
LINE
  5
494
100
AcDbEntity
  8
0
 62
     0
100
AcDbLine
 10
12.552
 20
7.510328
 30
0.0
 11
12.627337
 21
7.585666
 31
0.0
  0
LINE
  5
495
100
AcDbEntity
  8
0
 62
     0
100
AcDbLine
 10
12.559243
 20
7.510501
 30
0.0
 11
12.638387
 21
7.589645
 31
0.0
  0
LINE
  5
496
100
AcDbEntity
  8
0
 62
     0
100
AcDbLine
 10
12.565967
 20
7.510154
 30
0.0
 11
12.650525
 21
7.594711
 31
0.0
  0
LINE
  5
497
100
AcDbEntity
  8
0
 62
     0
100
AcDbLine
 10
12.571092
 20
7.508207
 30
0.0
 11
12.66428
 21
7.601395
 31
0.0
  0
LINE
  5
498
100
AcDbEntity
  8
0
 62
     0
100
AcDbLine
 10
12.575128
 20
7.505172
 30
0.0
 11
12.680887
 21
7.610931
 31
0.0
  0
LINE
  5
499
100
AcDbEntity
  8
0
 62
     0
100
AcDbLine
 10
12.760061
 20
7.690105
 30
0.0
 11
12.772736
 21
7.702781
 31
0.0
  0
LINE
  5
49A
100
AcDbEntity
  8
0
 62
     0
100
AcDbLine
 10
12.578203
 20
7.501177
 30
0.0
 11
12.705669
 21
7.628642
 31
0.0
  0
LINE
  5
49B
100
AcDbEntity
  8
0
 62
     0
100
AcDbLine
 10
12.742349
 20
7.665323
 30
0.0
 11
12.777344
 21
7.700318
 31
0.0
  0
LINE
  5
49C
100
AcDbEntity
  8
0
 62
     0
100
AcDbLine
 10
12.580202
 20
7.496104
 30
0.0
 11
12.781952
 21
7.697855
 31
0.0
  0
LINE
  5
49D
100
AcDbEntity
  8
0
 62
     0
100
AcDbLine
 10
12.581616
 20
7.490447
 30
0.0
 11
12.78656
 21
7.695392
 31
0.0
  0
LINE
  5
49E
100
AcDbEntity
  8
0
 62
     0
100
AcDbLine
 10
12.583463
 20
7.485224
 30
0.0
 11
12.791168
 21
7.692929
 31
0.0
  0
LINE
  5
49F
100
AcDbEntity
  8
0
 62
     0
100
AcDbLine
 10
12.585498
 20
7.480187
 30
0.0
 11
12.795776
 21
7.690466
 31
0.0
  0
LINE
  5
4A0
100
AcDbEntity
  8
0
 62
     0
100
AcDbLine
 10
12.587711
 20
7.475329
 30
0.0
 11
12.800384
 21
7.688002
 31
0.0
  0
LINE
  5
4A1
100
AcDbEntity
  8
0
 62
     0
100
AcDbLine
 10
12.590092
 20
7.470639
 30
0.0
 11
12.804993
 21
7.685539
 31
0.0
  0
LINE
  5
4A2
100
AcDbEntity
  8
0
 62
     0
100
AcDbLine
 10
12.592635
 20
7.466111
 30
0.0
 11
12.644406
 21
7.517882
 31
0.0
  0
LINE
  5
4A3
100
AcDbEntity
  8
0
 62
     0
100
AcDbLine
 10
12.656026
 20
7.529502
 30
0.0
 11
12.809601
 21
7.683076
 31
0.0
  0
LINE
  5
4A4
100
AcDbEntity
  8
0
 62
     0
100
AcDbLine
 10
12.597234
 20
7.463639
 30
0.0
 11
12.643477
 21
7.509882
 31
0.0
  0
LINE
  5
4A5
100
AcDbEntity
  8
0
 62
     0
100
AcDbLine
 10
12.667627
 20
7.534031
 30
0.0
 11
12.814209
 21
7.680613
 31
0.0
  0
LINE
  5
4A6
100
AcDbEntity
  8
0
 62
     0
100
AcDbLine
 10
12.605537
 20
7.464871
 30
0.0
 11
12.644426
 21
7.503759
 31
0.0
  0
LINE
  5
4A7
100
AcDbEntity
  8
0
 62
     0
100
AcDbLine
 10
12.680224
 20
7.539558
 30
0.0
 11
12.818817
 21
7.67815
 31
0.0
  0
LINE
  5
4A8
100
AcDbEntity
  8
0
 62
     0
100
AcDbLine
 10
12.614082
 20
7.466345
 30
0.0
 11
12.644792
 21
7.497055
 31
0.0
  0
LINE
  5
4A9
100
AcDbEntity
  8
0
 62
     0
100
AcDbLine
 10
12.688748
 20
7.54101
 30
0.0
 11
12.823425
 21
7.675687
 31
0.0
  0
LINE
  5
4AA
100
AcDbEntity
  8
0
 62
     0
100
AcDbLine
 10
12.622896
 20
7.468087
 30
0.0
 11
12.644786
 21
7.489978
 31
0.0
  0
LINE
  5
4AB
100
AcDbEntity
  8
0
 62
     0
100
AcDbLine
 10
12.694515
 20
7.539707
 30
0.0
 11
12.828033
 21
7.673224
 31
0.0
  0
LINE
  5
4AC
100
AcDbEntity
  8
0
 62
     0
100
AcDbLine
 10
12.632009
 20
7.47013
 30
0.0
 11
12.644338
 21
7.482458
 31
0.0
  0
LINE
  5
4AD
100
AcDbEntity
  8
0
 62
     0
100
AcDbLine
 10
12.699015
 20
7.537135
 30
0.0
 11
12.832641
 21
7.670761
 31
0.0
  0
LINE
  5
4AE
100
AcDbEntity
  8
0
 62
     0
100
AcDbLine
 10
12.641462
 20
7.472511
 30
0.0
 11
12.643345
 21
7.474395
 31
0.0
  0
LINE
  5
4AF
100
AcDbEntity
  8
0
 62
     0
100
AcDbLine
 10
12.784788
 20
7.615837
 30
0.0
 11
12.837249
 21
7.668298
 31
0.0
  0
LINE
  5
4B0
100
AcDbEntity
  8
0
 62
     0
100
AcDbLine
 10
12.702528
 20
7.533578
 30
0.0
 11
12.755154
 21
7.586204
 31
0.0
  0
LINE
  5
4B1
100
AcDbEntity
  8
0
 62
     0
100
AcDbLine
 10
12.705478
 20
7.529457
 30
0.0
 11
12.753781
 21
7.577759
 31
0.0
  0
LINE
  5
4B2
100
AcDbEntity
  8
0
 62
     0
100
AcDbLine
 10
12.793232
 20
7.617211
 30
0.0
 11
12.841857
 21
7.665835
 31
0.0
  0
LINE
  5
4B3
100
AcDbEntity
  8
0
 62
     0
100
AcDbLine
 10
12.708785
 20
7.525692
 30
0.0
 11
12.755107
 21
7.572014
 31
0.0
  0
LINE
  5
4B4
100
AcDbEntity
  8
0
 62
     0
100
AcDbLine
 10
12.798978
 20
7.615885
 30
0.0
 11
12.846465
 21
7.663372
 31
0.0
  0
LINE
  5
4B5
100
AcDbEntity
  8
0
 62
     0
100
AcDbLine
 10
12.712234
 20
7.522071
 30
0.0
 11
12.757693
 21
7.56753
 31
0.0
  0
LINE
  5
4B6
100
AcDbEntity
  8
0
 62
     0
100
AcDbLine
 10
12.803462
 20
7.613298
 30
0.0
 11
12.851073
 21
7.660909
 31
0.0
  0
LINE
  5
4B7
100
AcDbEntity
  8
0
 62
     0
100
AcDbLine
 10
12.715826
 20
7.518591
 30
0.0
 11
12.760169
 21
7.562934
 31
0.0
  0
LINE
  5
4B8
100
AcDbEntity
  8
0
 62
     0
100
AcDbLine
 10
12.808058
 20
7.610823
 30
0.0
 11
12.855681
 21
7.658446
 31
0.0
  0
LINE
  5
4B9
100
AcDbEntity
  8
0
 62
     0
100
AcDbLine
 10
12.71956
 20
7.515254
 30
0.0
 11
12.762414
 21
7.558108
 31
0.0
  0
LINE
  5
4BA
100
AcDbEntity
  8
0
 62
     0
100
AcDbLine
 10
12.812884
 20
7.608578
 30
0.0
 11
12.860289
 21
7.655983
 31
0.0
  0
LINE
  5
4BB
100
AcDbEntity
  8
0
 62
     0
100
AcDbLine
 10
12.723437
 20
7.51206
 30
0.0
 11
12.764483
 21
7.553106
 31
0.0
  0
LINE
  5
4BC
100
AcDbEntity
  8
0
 62
     0
100
AcDbLine
 10
12.817886
 20
7.606509
 30
0.0
 11
12.864897
 21
7.65352
 31
0.0
  0
LINE
  5
4BD
100
AcDbEntity
  8
0
 62
     0
100
AcDbLine
 10
12.727459
 20
7.509011
 30
0.0
 11
12.766367
 21
7.547919
 31
0.0
  0
LINE
  5
4BE
100
AcDbEntity
  8
0
 62
     0
100
AcDbLine
 10
12.823073
 20
7.604625
 30
0.0
 11
12.864894
 21
7.646446
 31
0.0
  0
LINE
  5
4BF
100
AcDbEntity
  8
0
 62
     0
100
AcDbLine
 10
12.741965
 20
7.516445
 30
0.0
 11
12.768053
 21
7.542534
 31
0.0
  0
LINE
  5
4C0
100
AcDbEntity
  8
0
 62
     0
100
AcDbLine
 10
12.828457
 20
7.602938
 30
0.0
 11
12.854546
 21
7.629027
 31
0.0
  0
LINE
  5
4C1
100
AcDbEntity
  8
0
 62
     0
100
AcDbLine
 10
12.764536
 20
7.531946
 30
0.0
 11
12.769528
 21
7.536937
 31
0.0
  0
LINE
  5
4C2
100
AcDbEntity
  8
0
 62
     0
100
AcDbLine
 10
12.834054
 20
7.601464
 30
0.0
 11
12.839045
 21
7.606455
 31
0.0
  0
ENDBLK
  5
4C4
100
AcDbEntity
  8
0
100
AcDbBlockEnd
  0
BLOCK
  5
4C5
100
AcDbEntity
  8
OBJ
100
AcDbBlockBegin
  2
OTITLE
 70
     2
 10
0.0
 20
0.0
 30
0.0
  3
OTITLE
  1

  0
ATTDEF
  5
324
100
AcDbEntity
  8
BORDER
100
AcDbText
 10
-2.4282
 20
0.360554
 30
0.0
 40
0.25
  1

  7
SIMPLEX
 72
     1
 11
-1.374629
 21
0.485554
 31
0.0
100
AcDbAttributeDefinition
  3
DRAWING NUMBER
  2
DRAWINGNO
 70
     0
 74
     2
  0
ATTDEF
  5
325
100
AcDbEntity
  8
BORDER
100
AcDbText
 10
-2.918731
 20
1.344065
 30
0.0
 40
0.25
  1

 41
0.8
  7
SIMPLEX
 72
     1
 11
-1.999683
 21
1.469065
 31
0.0
100
AcDbAttributeDefinition
  3
DESCRIPTION
  2
DESCRIPTION
 70
     0
 74
     2
  0
ATTDEF
  5
326
100
AcDbEntity
  8
BORDER
100
AcDbText
 10
-2.918731
 20
0.993326
 30
0.0
 40
0.25
  1

 41
0.8
  7
SIMPLEX
 72
     1
 11
-1.999683
 21
1.118326
 31
0.0
100
AcDbAttributeDefinition
  3
2nd DESCRIPTION
  2
DESCRIPTION
 70
     0
 74
     2
  0
ATTDEF
  5
327
100
AcDbEntity
  8
BORDER
100
AcDbText
 10
-3.20196
 20
0.360554
 30
0.0
 40
0.25
  1

  7
SIMPLEX
 72
     1
 11
-2.999579
 21
0.485554
 31
0.0
100
AcDbAttributeDefinition
  3
DRAWING SIZE
  2
SZ
 70
     0
 74
     2
  0
ATTDEF
  5
328
100
AcDbEntity
  8
BORDER
100
AcDbText
 10
-5.342953
 20
0.125389
 30
0.0
 40
0.25
  1
1:1
  7
SIMPLEX
 72
     1
 11
-4.789382
 21
0.250389
 31
0.0
100
AcDbAttributeDefinition
  3
SCALE
  2
SCALE
 70
     0
 74
     2
  0
ATTDEF
  5
329
100
AcDbEntity
  8
BORDER
100
AcDbText
 10
-5.933615
 20
1.331835
 30
0.0
 40
0.2
  1

  7
SIMPLEX
 72
     1
 11
-5.562187
 21
1.431835
 31
0.0
100
AcDbAttributeDefinition
  3
APPROVED BY
  2
APPR
 70
     0
 74
     2
  0
ATTDEF
  5
32A
100
AcDbEntity
  8
BORDER
100
AcDbText
 10
-5.919121
 20
1.831835
 30
0.0
 40
0.2
  1

  7
SIMPLEX
 72
     1
 11
-5.561978
 21
1.931835
 31
0.0
100
AcDbAttributeDefinition
  3
PREPARED BY
  2
PREP
 70
     0
 74
     2
  0
ATTDEF
  5
32B
100
AcDbEntity
  8
BORDER
100
AcDbText
 10
-4.773562
 20
1.900388
 30
0.0
 40
0.2
  1

 41
0.6
  7
SIMPLEX
 72
     1
 11
-4.562133
 21
2.000388
 31
0.0
100
AcDbAttributeDefinition
  3
DATE
  2
DATE
 70
     0
 74
     2
  0
POLYLINE
  5
32C
100
AcDbEntity
  8
BORDER
  6
CONTINUOUS
100
AcDb2dPolyline
 66
     1
 10
0.0
 20
0.0
 30
0.0
  0
VERTEX
  5
32D
100
AcDbEntity
  8
BORDER
  6
CONTINUOUS
100
AcDbVertex
100
AcDb2dVertex
 10
-3.999579
 20
1.250388
 30
0.0
  0
VERTEX
  5
32E
100
AcDbEntity
  8
BORDER
  6
CONTINUOUS
100
AcDbVertex
100
AcDb2dVertex
 10
-5.999479
 20
1.250388
 30
0.0
  0
SEQEND
  5
32F
100
AcDbEntity
  8
BORDER
  0
POLYLINE
  5
330
100
AcDbEntity
  8
BORDER
  6
CONTINUOUS
100
AcDb2dPolyline
 66
     1
 10
0.0
 20
0.0
 30
0.0
  0
VERTEX
  5
331
100
AcDbEntity
  8
BORDER
  6
CONTINUOUS
100
AcDbVertex
100
AcDb2dVertex
 10
-5.999479
 20
0.500388
 30
0.0
  0
VERTEX
  5
332
100
AcDbEntity
  8
BORDER
  6
CONTINUOUS
100
AcDbVertex
100
AcDb2dVertex
 10
-3.999579
 20
0.500388
 30
0.0
  0
SEQEND
  5
333
100
AcDbEntity
  8
BORDER
  0
POLYLINE
  5
334
100
AcDbEntity
  8
BORDER
  6
CONTINUOUS
100
AcDb2dPolyline
 66
     1
 10
0.0
 20
0.0
 30
0.0
 40
0.02
 41
0.02
  0
VERTEX
  5
335
100
AcDbEntity
  8
BORDER
  6
CONTINUOUS
100
AcDbVertex
100
AcDb2dVertex
 10
-3.999579
 20
2.250388
 30
0.0
  0
VERTEX
  5
336
100
AcDbEntity
  8
BORDER
  6
CONTINUOUS
100
AcDbVertex
100
AcDb2dVertex
 10
-5.999479
 20
2.250388
 30
0.0
  0
SEQEND
  5
337
100
AcDbEntity
  8
BORDER
  0
POLYLINE
  5
338
100
AcDbEntity
  8
BORDER
  6
CONTINUOUS
100
AcDb2dPolyline
 66
     1
 10
0.0
 20
0.0
 30
0.0
 40
0.02
 41
0.02
  0
VERTEX
  5
339
100
AcDbEntity
  8
BORDER
  6
CONTINUOUS
100
AcDbVertex
100
AcDb2dVertex
 10
-5.999688
 20
1.750388
 30
0.0
  0
VERTEX
  5
33A
100
AcDbEntity
  8
BORDER
  6
CONTINUOUS
100
AcDbVertex
100
AcDb2dVertex
 10
0.000321
 20
1.750388
 30
0.0
  0
SEQEND
  5
33B
100
AcDbEntity
  8
BORDER
  0
POLYLINE
  5
33C
100
AcDbEntity
  8
BORDER
  6
CONTINUOUS
100
AcDb2dPolyline
 66
     1
 10
0.0
 20
0.0
 30
0.0
 40
0.02
 41
0.02
  0
VERTEX
  5
33D
100
AcDbEntity
  8
BORDER
  6
CONTINUOUS
100
AcDbVertex
100
AcDb2dVertex
 10
0.000321
 20
0.848988
 30
0.0
  0
VERTEX
  5
33E
100
AcDbEntity
  8
BORDER
  6
CONTINUOUS
100
AcDbVertex
100
AcDb2dVertex
 10
-3.999579
 20
0.848888
 30
0.0
  0
SEQEND
  5
33F
100
AcDbEntity
  8
BORDER
  0
POLYLINE
  5
340
100
AcDbEntity
  8
BORDER
  6
CONTINUOUS
100
AcDb2dPolyline
 66
     1
 10
0.0
 20
0.0
 30
0.0
 40
0.02
 41
0.02
  0
VERTEX
  5
341
100
AcDbEntity
  8
BORDER
  6
CONTINUOUS
100
AcDbVertex
100
AcDb2dVertex
 10
-3.249579
 20
0.848888
 30
0.0
  0
VERTEX
  5
342
100
AcDbEntity
  8
BORDER
  6
CONTINUOUS
100
AcDbVertex
100
AcDb2dVertex
 10
-3.249579
 20
0.000488
 30
0.0
  0
SEQEND
  5
343
100
AcDbEntity
  8
BORDER
  0
POLYLINE
  5
344
100
AcDbEntity
  8
BORDER
  6
CONTINUOUS
100
AcDb2dPolyline
 66
     1
 10
0.0
 20
0.0
 30
0.0
 40
0.02
 41
0.02
  0
VERTEX
  5
345
100
AcDbEntity
  8
BORDER
  6
CONTINUOUS
100
AcDbVertex
100
AcDb2dVertex
 10
-3.99968
 20
0.250365
 30
0.0
  0
VERTEX
  5
346
100
AcDbEntity
  8
BORDER
  6
CONTINUOUS
100
AcDbVertex
100
AcDb2dVertex
 10
0.000321
 20
0.250488
 30
0.0
  0
SEQEND
  5
347
100
AcDbEntity
  8
BORDER
  0
POLYLINE
  5
348
100
AcDbEntity
  8
BORDER
  6
CONTINUOUS
100
AcDb2dPolyline
 66
     1
 10
0.0
 20
0.0
 30
0.0
 40
0.02
 41
0.02
  0
VERTEX
  5
349
100
AcDbEntity
  8
BORDER
  6
CONTINUOUS
100
AcDbVertex
100
AcDb2dVertex
 10
-1.749679
 20
0.250488
 30
0.0
  0
VERTEX
  5
34A
100
AcDbEntity
  8
BORDER
  6
CONTINUOUS
100
AcDbVertex
100
AcDb2dVertex
 10
-1.749679
 20
0.000488
 30
0.0
  0
SEQEND
  5
34B
100
AcDbEntity
  8
BORDER
  0
POLYLINE
  5
34C
100
AcDbEntity
  8
BORDER
  6
CONTINUOUS
100
AcDb2dPolyline
 66
     1
 10
0.0
 20
0.0
 30
0.0
 40
0.02
 41
0.02
  0
VERTEX
  5
34D
100
AcDbEntity
  8
BORDER
  6
CONTINUOUS
100
AcDbVertex
100
AcDb2dVertex
 10
-2.749579
 20
0.250488
 30
0.0
  0
VERTEX
  5
34E
100
AcDbEntity
  8
BORDER
  6
CONTINUOUS
100
AcDbVertex
100
AcDb2dVertex
 10
-2.749579
 20
0.848888
 30
0.0
  0
SEQEND
  5
34F
100
AcDbEntity
  8
BORDER
  0
TEXT
  5
350
100
AcDbEntity
  8
BORDER
100
AcDbText
 10
-2.023891
 20
2.12196
 30
0.0
 40
0.113582
  1
INC
  7
ROMANC
 72
     3
 11
-1.742641
 21
2.12196
 31
0.0
100
AcDbText
  0
TEXT
  5
352
100
AcDbEntity
  8
BORDER
100
AcDbText
 10
-1.420135
 20
2.302688
 30
0.0
 40
0.084082
  1
1705 VALLEY RD
  7
ROMANC
 72
     3
 11
-0.295035
 21
2.302688
 31
0.0
100
AcDbText
  0
TEXT
  5
353
100
AcDbEntity
  8
BORDER
100
AcDbText
 10
-1.420135
 20
2.135788
 30
0.0
 40
0.091224
  1
WANAMASSA, NJ
  7
ROMANC
 72
     3
 11
-0.295035
 21
2.135788
 31
0.0
100
AcDbText
  0
TEXT
  5
354
100
AcDbEntity
  8
BORDER
100
AcDbText
 10
-1.064635
 20
1.969188
 30
0.0
 40
0.081186
  1
07712
  7
ROMANC
 72
     3
 11
-0.689635
 21
1.969188
 31
0.0
100
AcDbText
  0
TEXT
  5
355
100
AcDbEntity
  8
BORDER
100
AcDbText
 10
-5.930251
 20
2.315208
 30
0.0
 40
0.084225
  1
SIGNATURES
  7
SIMPLEX
100
AcDbText
  0
TEXT
  5
356
100
AcDbEntity
  8
BORDER
100
AcDbText
 10
-5.871038
 20
2.132575
 30
0.0
 40
0.08
  1
PREPARED
  7
SIMPLEX
100
AcDbText
  0
TEXT
  5
357
100
AcDbEntity
  8
BORDER
100
AcDbText
 10
-5.871038
 20
1.629632
 30
0.0
 40
0.08
  1
APPROVED
  7
SIMPLEX
100
AcDbText
  0
TEXT
  5
358
100
AcDbEntity
  8
BORDER
100
AcDbText
 10
-3.922206
 20
0.346996
 30
0.0
 40
0.3
  1
IJY29
 41
0.534089
  7
SIMPLEX
 72
     5
 11
-3.334709
 21
0.346996
 31
0.0
100
AcDbText
  0
TEXT
  5
359
100
AcDbEntity
  8
BORDER
100
AcDbText
 10
-2.343651
 20
1.967931
 30
0.0
 40
0.05509
  1
U.S.A.
  7
ROMANC
 72
     3
 11
-2.107551
 21
1.967931
 31
0.0
100
AcDbText
  0
TEXT
  5
35A
100
AcDbEntity
  8
BORDER
100
AcDbText
 10
-8.142004
 20
1.102843
 30
0.0
 40
0.05
  1
UNLESS OTHERWISE PROVIDED FOR HEREIN,
  7
SIMPLEX
100
AcDbText
  0
TEXT
  5
35B
100
AcDbEntity
  8
BORDER
100
AcDbText
 10
-8.142004
 20
1.002843
 30
0.0
 40
0.05
  1
THIS DRAWING, CONTAINING INFORMATION
  7
SIMPLEX
100
AcDbText
  0
TEXT
  5
35C
100
AcDbEntity
  8
BORDER
100
AcDbText
 10
-8.142004
 20
0.902843
 30
0.0
 40
0.05
  1
IN WHICH ANDANTEX USA INC (HEREIN
  7
SIMPLEX
100
AcDbText
  0
TEXT
  5
35D
100
AcDbEntity
  8
BORDER
100
AcDbText
 10
-8.142004
 20
0.802843
 30
0.0
 40
0.05
  1
CALLED ANDANTEX) HAS PROPRIETARY RIGHTS
 50
0.001563
  7
SIMPLEX
100
AcDbText
  0
TEXT
  5
35E
100
AcDbEntity
  8
BORDER
100
AcDbText
 10
-8.142004
 20
0.702843
 30
0.0
 40
0.05
  1
IS SUBMITTED SOLELY IN CONNECTION WITH
  7
SIMPLEX
100
AcDbText
  0
TEXT
  5
35F
100
AcDbEntity
  8
BORDER
100
AcDbText
 10
-8.142004
 20
0.602843
 30
0.0
 40
0.05
  1
PROCUREMENT BY OR FROM ANDANTEX OF THE 
  7
SIMPLEX
100
AcDbText
  0
TEXT
  5
360
100
AcDbEntity
  8
BORDER
100
AcDbText
 10
-8.142004
 20
0.502843
 30
0.0
 40
0.05
  1
ITEM DEPICTED NEITHER ITS RECEIPT NOR
  7
SIMPLEX
100
AcDbText
  0
TEXT
  5
361
100
AcDbEntity
  8
BORDER
100
AcDbText
 10
-8.142004
 20
0.302843
 30
0.0
 40
0.05
  1
TO USE IT OR REPRODUCE IT OR DISCLOSE ITS
  7
SIMPLEX
100
AcDbText
  0
TEXT
  5
362
100
AcDbEntity
  8
BORDER
100
AcDbText
 10
-8.142004
 20
0.202843
 30
0.0
 40
0.05
  1
CONTENTS FOR ANY OTHER PURPOSE EXCEPT WITH
  7
SIMPLEX
100
AcDbText
  0
TEXT
  5
363
100
AcDbEntity
  8
BORDER
100
AcDbText
 10
-8.142004
 20
0.102843
 30
0.0
 40
0.05
  1
ANDANTEX PRIOR WRITTEN CONSENT.
  7
SIMPLEX
100
AcDbText
  0
TEXT
  5
364
100
AcDbEntity
  8
BORDER
100
AcDbText
 10
-8.142004
 20
0.402843
 30
0.0
 40
0.05
  1
POSSESSION CONFERS UPON ANYONE ANY RIGHT
  7
SIMPLEX
100
AcDbText
  0
POLYLINE
  5
365
100
AcDbEntity
  8
BORDER
  6
CONTINUOUS
100
AcDb2dPolyline
 66
     1
 10
0.0
 20
0.0
 30
0.0
 40
0.02
 41
0.02
  0
VERTEX
  5
366
100
AcDbEntity
  8
BORDER
  6
CONTINUOUS
100
AcDbVertex
100
AcDb2dVertex
 10
-5.999479
 20
0.500388
 30
0.0
  0
VERTEX
  5
367
100
AcDbEntity
  8
BORDER
  6
CONTINUOUS
100
AcDbVertex
100
AcDb2dVertex
 10
-3.999579
 20
0.500388
 30
0.0
  0
SEQEND
  5
368
100
AcDbEntity
  8
BORDER
  0
TEXT
  5
369
100
AcDbEntity
  8
BORDER
100
AcDbText
 10
-5.916179
 20
1.083688
 30
0.0
 40
0.08
  1
UNLESS OTHERWISE SPECIFIED
  7
SIMPLEX
100
AcDbText
  0
TEXT
  5
36A
100
AcDbEntity
  8
BORDER
100
AcDbText
 10
-5.416179
 20
0.750388
 30
0.0
 40
0.08
  1
TOLERANCES
  7
SIMPLEX
100
AcDbText
  0
POLYLINE
  5
36B
100
AcDbEntity
  8
BORDER
  6
CONTINUOUS
100
AcDb2dPolyline
 66
     1
 10
0.0
 20
0.0
 30
0.0
 40
0.02
 41
0.02
  0
VERTEX
  5
36C
100
AcDbEntity
  8
BORDER
  6
CONTINUOUS
100
AcDbVertex
100
AcDb2dVertex
 10
-3.999579
 20
1.250388
 30
0.0
  0
VERTEX
  5
36D
100
AcDbEntity
  8
BORDER
  6
CONTINUOUS
100
AcDbVertex
100
AcDb2dVertex
 10
-5.999479
 20
1.250388
 30
0.0
  0
SEQEND
  5
36E
100
AcDbEntity
  8
BORDER
  0
TEXT
  5
36F
100
AcDbEntity
  8
BORDER
100
AcDbText
 10
-4.311574
 20
0.563272
 30
0.0
 40
0.08
  1
%%P2%%D
  7
SIMPLEX
100
AcDbText
  0
TEXT
  5
370
100
AcDbEntity
  8
BORDER
100
AcDbText
 10
-5.839714
 20
0.951788
 30
0.0
 40
0.08
  1
DIMENSIONS ARE IN INCHES
  7
SIMPLEX
100
AcDbText
  0
TEXT
  5
371
100
AcDbEntity
  8
BORDER
100
AcDbText
 10
-5.879461
 20
0.570572
 30
0.0
 40
0.08
  1
.XX %%P.03
  7
SIMPLEX
100
AcDbText
  0
TEXT
  5
372
100
AcDbEntity
  8
BORDER
100
AcDbText
 10
-5.21925
 20
0.569672
 30
0.0
 40
0.08
  1
.XXX %%P.010
  7
SIMPLEX
100
AcDbText
  0
TEXT
  5
373
100
AcDbEntity
  8
BORDER
100
AcDbText
 10
-2.682285
 20
0.728132
 30
0.0
 40
0.08
  1
DRAWING NO.
  7
SIMPLEX
100
AcDbText
  0
TEXT
  5
374
100
AcDbEntity
  8
BORDER
100
AcDbText
 10
-4.742922
 20
2.315208
 30
0.0
 40
0.084225
  1
DATE
  7
SIMPLEX
100
AcDbText
  0
POLYLINE
  5
375
100
AcDbEntity
  8
BORDER
  6
CONTINUOUS
100
AcDb2dPolyline
 66
     1
 10
0.0
 20
0.0
 30
0.0
 40
0.02
 41
0.02
  0
VERTEX
  5
376
100
AcDbEntity
  8
BORDER
  6
CONTINUOUS
100
AcDbVertex
100
AcDb2dVertex
 10
-5.124692
 20
2.631216
 30
0.0
  0
VERTEX
  5
377
100
AcDbEntity
  8
BORDER
  6
CONTINUOUS
100
AcDbVertex
100
AcDb2dVertex
 10
-5.124685
 20
1.250388
 30
0.0
  0
SEQEND
  5
378
100
AcDbEntity
  8
BORDER
  6
CONTINUOUS
  0
POLYLINE
  5
379
100
AcDbEntity
  8
BORDER
  6
CONTINUOUS
100
AcDb2dPolyline
 66
     1
 10
0.0
 20
0.0
 30
0.0
 40
0.02
 41
0.02
  0
VERTEX
  5
37A
100
AcDbEntity
  8
BORDER
  6
CONTINUOUS
100
AcDbVertex
100
AcDb2dVertex
 10
-3.999692
 20
2.631221
 30
0.0
  0
VERTEX
  5
37B
100
AcDbEntity
  8
BORDER
  6
CONTINUOUS
100
AcDbVertex
100
AcDb2dVertex
 10
-3.999679
 20
0.000468
 30
0.0
  0
SEQEND
  5
37C
100
AcDbEntity
  8
BORDER
  6
CONTINUOUS
  0
TEXT
  5
37D
100
AcDbEntity
  8
BORDER
100
AcDbText
 10
-3.130484
 20
0.728132
 30
0.0
 40
0.08
  1
SIZE
  7
SIMPLEX
100
AcDbText
  0
TEXT
  5
37E
100
AcDbEntity
  8
BORDER
100
AcDbText
 10
-3.871009
 20
0.728132
 30
0.0
 40
0.08
  1
CODE ID
  7
SIMPLEX
100
AcDbText
  0
POLYLINE
  5
37F
100
AcDbEntity
  8
BORDER
  6
CONTINUOUS
100
AcDb2dPolyline
 66
     1
 10
0.0
 20
0.0
 30
0.0
 40
0.04
 41
0.04
  0
VERTEX
  5
380
100
AcDbEntity
  8
BORDER
  6
CONTINUOUS
100
AcDbVertex
100
AcDb2dVertex
 10
-5.999692
 20
0.000389
 30
0.0
  0
VERTEX
  5
381
100
AcDbEntity
  8
BORDER
  6
CONTINUOUS
100
AcDbVertex
100
AcDb2dVertex
 10
-5.999692
 20
2.631189
 30
0.0
  0
VERTEX
  5
382
100
AcDbEntity
  8
BORDER
  6
CONTINUOUS
100
AcDbVertex
100
AcDb2dVertex
 10
0.000308
 20
2.631241
 30
0.0
  0
SEQEND
  5
383
100
AcDbEntity
  8
BORDER
  6
CONTINUOUS
  0
TEXT
  5
384
100
AcDbEntity
  8
BORDER
100
AcDbText
 10
-3.740361
 20
2.094353
 30
0.0
 40
0.1875
  1
ANDANTEX
 41
1.08982
  7
ROMANC
 72
     5
 11
-2.115361
 21
2.094353
 31
0.0
100
AcDbText
  0
POLYLINE
  5
385
100
AcDbEntity
  8
BORDER
100
AcDb2dPolyline
 66
     1
 10
0.0
 20
0.0
 30
0.0
 70
     1
  0
VERTEX
  5
386
100
AcDbEntity
  8
BORDER
100
AcDbVertex
100
AcDb2dVertex
 10
-2.940839
 20
2.500333
 30
0.0
 42
-0.397721
  0
VERTEX
  5
387
100
AcDbEntity
  8
BORDER
100
AcDbVertex
100
AcDb2dVertex
 10
-2.960277
 20
2.517229
 30
0.0
 42
0.067386
  0
VERTEX
  5
388
100
AcDbEntity
  8
BORDER
100
AcDbVertex
100
AcDb2dVertex
 10
-2.974044
 20
2.547649
 30
0.0
 42
0.034315
  0
VERTEX
  5
389
100
AcDbEntity
  8
BORDER
100
AcDbVertex
100
AcDb2dVertex
 10
-3.022787
 20
2.537953
 30
0.0
 42
0.067386
  0
VERTEX
  5
38A
100
AcDbEntity
  8
BORDER
100
AcDbVertex
100
AcDb2dVertex
 10
-3.023864
 20
2.504581
 30
0.0
 42
-0.397721
  0
VERTEX
  5
38B
100
AcDbEntity
  8
BORDER
100
AcDbVertex
100
AcDb2dVertex
 10
-3.035357
 20
2.481532
 30
0.0
 42
0.020773
  0
VERTEX
  5
38C
100
AcDbEntity
  8
BORDER
100
AcDbVertex
100
AcDb2dVertex
 10
-3.059337
 20
2.4716
 30
0.0
 42
-0.397721
  0
VERTEX
  5
38D
100
AcDbEntity
  8
BORDER
100
AcDbVertex
100
AcDb2dVertex
 10
-3.083761
 20
2.479771
 30
0.0
 42
0.067386
  0
VERTEX
  5
38E
100
AcDbEntity
  8
BORDER
100
AcDbVertex
100
AcDb2dVertex
 10
-3.108121
 20
2.502607
 30
0.0
 42
0.034315
  0
VERTEX
  5
38F
100
AcDbEntity
  8
BORDER
100
AcDbVertex
100
AcDb2dVertex
 10
-3.149443
 20
2.474996
 30
0.0
 42
0.067386
  0
VERTEX
  5
390
100
AcDbEntity
  8
BORDER
100
AcDbVertex
100
AcDb2dVertex
 10
-3.137667
 20
2.443752
 30
0.0
 42
-0.397721
  0
VERTEX
  5
391
100
AcDbEntity
  8
BORDER
100
AcDbVertex
100
AcDb2dVertex
 10
-3.139465
 20
2.41806
 30
0.0
 42
0.020773
  0
VERTEX
  5
392
100
AcDbEntity
  8
BORDER
100
AcDbVertex
100
AcDb2dVertex
 10
-3.157818
 20
2.399706
 30
0.0
 42
-0.397721
  0
VERTEX
  5
393
100
AcDbEntity
  8
BORDER
100
AcDbVertex
100
AcDb2dVertex
 10
-3.183511
 20
2.397909
 30
0.0
 42
0.067386
  0
VERTEX
  5
394
100
AcDbEntity
  8
BORDER
100
AcDbVertex
100
AcDb2dVertex
 10
-3.214755
 20
2.409684
 30
0.0
 42
0.041718
  0
VERTEX
  5
395
100
AcDbEntity
  8
BORDER
100
AcDbVertex
100
AcDb2dVertex
 10
-3.247558
 20
2.358984
 30
0.0
  0
VERTEX
  5
396
100
AcDbEntity
  8
BORDER
100
AcDbVertex
100
AcDb2dVertex
 10
-3.148342
 20
2.305952
 30
0.0
 42
-0.599377
  0
VERTEX
  5
397
100
AcDbEntity
  8
BORDER
100
AcDbVertex
100
AcDb2dVertex
 10
-2.707381
 20
2.305952
 30
0.0
  0
VERTEX
  5
398
100
AcDbEntity
  8
BORDER
100
AcDbVertex
100
AcDb2dVertex
 10
-2.608165
 20
2.358984
 30
0.0
 42
0.041718
  0
VERTEX
  5
399
100
AcDbEntity
  8
BORDER
100
AcDbVertex
100
AcDb2dVertex
 10
-2.640968
 20
2.409684
 30
0.0
 42
0.067386
  0
VERTEX
  5
39A
100
AcDbEntity
  8
BORDER
100
AcDbVertex
100
AcDb2dVertex
 10
-2.672212
 20
2.397909
 30
0.0
 42
-0.397721
  0
VERTEX
  5
39B
100
AcDbEntity
  8
BORDER
100
AcDbVertex
100
AcDb2dVertex
 10
-2.697904
 20
2.399706
 30
0.0
 42
0.020773
  0
VERTEX
  5
39C
100
AcDbEntity
  8
BORDER
100
AcDbVertex
100
AcDb2dVertex
 10
-2.716258
 20
2.41806
 30
0.0
 42
-0.397721
  0
VERTEX
  5
39D
100
AcDbEntity
  8
BORDER
100
AcDbVertex
100
AcDb2dVertex
 10
-2.718056
 20
2.443752
 30
0.0
 42
0.067386
  0
VERTEX
  5
39E
100
AcDbEntity
  8
BORDER
100
AcDbVertex
100
AcDb2dVertex
 10
-2.70628
 20
2.474996
 30
0.0
 42
0.034315
  0
VERTEX
  5
39F
100
AcDbEntity
  8
BORDER
100
AcDbVertex
100
AcDb2dVertex
 10
-2.747602
 20
2.502607
 30
0.0
 42
0.067386
  0
VERTEX
  5
3A0
100
AcDbEntity
  8
BORDER
100
AcDbVertex
100
AcDb2dVertex
 10
-2.771962
 20
2.479771
 30
0.0
 42
-0.397721
  0
VERTEX
  5
3A1
100
AcDbEntity
  8
BORDER
100
AcDbVertex
100
AcDb2dVertex
 10
-2.796386
 20
2.4716
 30
0.0
 42
0.020773
  0
VERTEX
  5
3A2
100
AcDbEntity
  8
BORDER
100
AcDbVertex
100
AcDb2dVertex
 10
-2.820366
 20
2.481532
 30
0.0
 42
-0.397721
  0
VERTEX
  5
3A3
100
AcDbEntity
  8
BORDER
100
AcDbVertex
100
AcDb2dVertex
 10
-2.831859
 20
2.504581
 30
0.0
 42
0.067386
  0
VERTEX
  5
3A4
100
AcDbEntity
  8
BORDER
100
AcDbVertex
100
AcDb2dVertex
 10
-2.832936
 20
2.537953
 30
0.0
 42
0.034315
  0
VERTEX
  5
3A5
100
AcDbEntity
  8
BORDER
100
AcDbVertex
100
AcDb2dVertex
 10
-2.881679
 20
2.547649
 30
0.0
 42
0.067386
  0
VERTEX
  5
3A6
100
AcDbEntity
  8
BORDER
100
AcDbVertex
100
AcDb2dVertex
 10
-2.895445
 20
2.517229
 30
0.0
 42
-0.397721
  0
VERTEX
  5
3A7
100
AcDbEntity
  8
BORDER
100
AcDbVertex
100
AcDb2dVertex
 10
-2.914884
 20
2.500333
 30
0.0
 42
0.020773
  0
SEQEND
  5
3A8
100
AcDbEntity
  8
BORDER
  0
POLYLINE
  5
3A9
100
AcDbEntity
  8
BORDER
100
AcDb2dPolyline
 66
     1
 10
0.0
 20
0.0
 30
0.0
 70
     1
  0
VERTEX
  5
3AA
100
AcDbEntity
  8
BORDER
100
AcDbVertex
100
AcDb2dVertex
 10
-2.940839
 20
1.875872
 30
0.0
 42
0.397721
  0
VERTEX
  5
3AB
100
AcDbEntity
  8
BORDER
100
AcDbVertex
100
AcDb2dVertex
 10
-2.960277
 20
1.858976
 30
0.0
 42
-0.067386
  0
VERTEX
  5
3AC
100
AcDbEntity
  8
BORDER
100
AcDbVertex
100
AcDb2dVertex
 10
-2.974044
 20
1.828557
 30
0.0
 42
-0.034315
  0
VERTEX
  5
3AD
100
AcDbEntity
  8
BORDER
100
AcDbVertex
100
AcDb2dVertex
 10
-3.022787
 20
1.838252
 30
0.0
 42
-0.067386
  0
VERTEX
  5
3AE
100
AcDbEntity
  8
BORDER
100
AcDbVertex
100
AcDb2dVertex
 10
-3.023864
 20
1.871625
 30
0.0
 42
0.397721
  0
VERTEX
  5
3AF
100
AcDbEntity
  8
BORDER
100
AcDbVertex
100
AcDb2dVertex
 10
-3.035357
 20
1.894673
 30
0.0
 42
-0.020773
  0
VERTEX
  5
3B0
100
AcDbEntity
  8
BORDER
100
AcDbVertex
100
AcDb2dVertex
 10
-3.059337
 20
1.904606
 30
0.0
 42
0.397721
  0
VERTEX
  5
3B1
100
AcDbEntity
  8
BORDER
100
AcDbVertex
100
AcDb2dVertex
 10
-3.083761
 20
1.896435
 30
0.0
 42
-0.067386
  0
VERTEX
  5
3B2
100
AcDbEntity
  8
BORDER
100
AcDbVertex
100
AcDb2dVertex
 10
-3.108121
 20
1.873599
 30
0.0
 42
-0.034315
  0
VERTEX
  5
3B3
100
AcDbEntity
  8
BORDER
100
AcDbVertex
100
AcDb2dVertex
 10
-3.149443
 20
1.901209
 30
0.0
 42
-0.067386
  0
VERTEX
  5
3B4
100
AcDbEntity
  8
BORDER
100
AcDbVertex
100
AcDb2dVertex
 10
-3.137667
 20
1.932454
 30
0.0
 42
0.397721
  0
VERTEX
  5
3B5
100
AcDbEntity
  8
BORDER
100
AcDbVertex
100
AcDb2dVertex
 10
-3.139465
 20
1.958146
 30
0.0
 42
-0.020773
  0
VERTEX
  5
3B6
100
AcDbEntity
  8
BORDER
100
AcDbVertex
100
AcDb2dVertex
 10
-3.157818
 20
1.976499
 30
0.0
 42
0.397721
  0
VERTEX
  5
3B7
100
AcDbEntity
  8
BORDER
100
AcDbVertex
100
AcDb2dVertex
 10
-3.183511
 20
1.978297
 30
0.0
 42
-0.067386
  0
VERTEX
  5
3B8
100
AcDbEntity
  8
BORDER
100
AcDbVertex
100
AcDb2dVertex
 10
-3.214755
 20
1.966521
 30
0.0
 42
-0.041718
  0
VERTEX
  5
3B9
100
AcDbEntity
  8
BORDER
100
AcDbVertex
100
AcDb2dVertex
 10
-3.247558
 20
2.017221
 30
0.0
  0
VERTEX
  5
3BA
100
AcDbEntity
  8
BORDER
100
AcDbVertex
100
AcDb2dVertex
 10
-3.148342
 20
2.070254
 30
0.0
 42
0.599377
  0
VERTEX
  5
3BB
100
AcDbEntity
  8
BORDER
100
AcDbVertex
100
AcDb2dVertex
 10
-2.707381
 20
2.070254
 30
0.0
  0
VERTEX
  5
3BC
100
AcDbEntity
  8
BORDER
100
AcDbVertex
100
AcDb2dVertex
 10
-2.608165
 20
2.017221
 30
0.0
 42
-0.041718
  0
VERTEX
  5
3BD
100
AcDbEntity
  8
BORDER
100
AcDbVertex
100
AcDb2dVertex
 10
-2.640968
 20
1.966521
 30
0.0
 42
-0.067386
  0
VERTEX
  5
3BE
100
AcDbEntity
  8
BORDER
100
AcDbVertex
100
AcDb2dVertex
 10
-2.672212
 20
1.978297
 30
0.0
 42
0.397721
  0
VERTEX
  5
3BF
100
AcDbEntity
  8
BORDER
100
AcDbVertex
100
AcDb2dVertex
 10
-2.697904
 20
1.976499
 30
0.0
 42
-0.020773
  0
VERTEX
  5
3C0
100
AcDbEntity
  8
BORDER
100
AcDbVertex
100
AcDb2dVertex
 10
-2.716258
 20
1.958146
 30
0.0
 42
0.397721
  0
VERTEX
  5
3C1
100
AcDbEntity
  8
BORDER
100
AcDbVertex
100
AcDb2dVertex
 10
-2.718056
 20
1.932454
 30
0.0
 42
-0.067386
  0
VERTEX
  5
3C2
100
AcDbEntity
  8
BORDER
100
AcDbVertex
100
AcDb2dVertex
 10
-2.70628
 20
1.901209
 30
0.0
 42
-0.034315
  0
VERTEX
  5
3C3
100
AcDbEntity
  8
BORDER
100
AcDbVertex
100
AcDb2dVertex
 10
-2.747602
 20
1.873599
 30
0.0
 42
-0.067386
  0
VERTEX
  5
3C4
100
AcDbEntity
  8
BORDER
100
AcDbVertex
100
AcDb2dVertex
 10
-2.771962
 20
1.896435
 30
0.0
 42
0.397721
  0
VERTEX
  5
3C5
100
AcDbEntity
  8
BORDER
100
AcDbVertex
100
AcDb2dVertex
 10
-2.796386
 20
1.904606
 30
0.0
 42
-0.020773
  0
VERTEX
  5
3C6
100
AcDbEntity
  8
BORDER
100
AcDbVertex
100
AcDb2dVertex
 10
-2.820366
 20
1.894673
 30
0.0
 42
0.397721
  0
VERTEX
  5
3C7
100
AcDbEntity
  8
BORDER
100
AcDbVertex
100
AcDb2dVertex
 10
-2.831859
 20
1.871625
 30
0.0
 42
-0.067386
  0
VERTEX
  5
3C8
100
AcDbEntity
  8
BORDER
100
AcDbVertex
100
AcDb2dVertex
 10
-2.832936
 20
1.838252
 30
0.0
 42
-0.034315
  0
VERTEX
  5
3C9
100
AcDbEntity
  8
BORDER
100
AcDbVertex
100
AcDb2dVertex
 10
-2.881679
 20
1.828557
 30
0.0
 42
-0.067386
  0
VERTEX
  5
3CA
100
AcDbEntity
  8
BORDER
100
AcDbVertex
100
AcDb2dVertex
 10
-2.895445
 20
1.858976
 30
0.0
 42
0.397721
  0
VERTEX
  5
3CB
100
AcDbEntity
  8
BORDER
100
AcDbVertex
100
AcDb2dVertex
 10
-2.914884
 20
1.875872
 30
0.0
 42
-0.020773
  0
SEQEND
  5
3CC
100
AcDbEntity
  8
BORDER
  0
POLYLINE
  5
3CD
100
AcDbEntity
  8
BORDER
100
AcDb2dPolyline
 66
     1
 10
0.0
 20
0.0
 30
0.0
 40
0.02
 41
0.02
  0
VERTEX
  5
3CE
100
AcDbEntity
  8
BORDER
100
AcDbVertex
100
AcDb2dVertex
 10
-8.249692
 20
0.000389
 30
0.0
  0
VERTEX
  5
3CF
100
AcDbEntity
  8
BORDER
100
AcDbVertex
100
AcDb2dVertex
 10
-8.249479
 20
1.250388
 30
0.0
  0
VERTEX
  5
3D0
100
AcDbEntity
  8
BORDER
100
AcDbVertex
100
AcDb2dVertex
 10
-5.999479
 20
1.250388
 30
0.0
  0
SEQEND
  5
3D1
100
AcDbEntity
  8
BORDER
  0
TEXT
  5
3D2
100
AcDbEntity
  8
BORDER
100
AcDbText
 10
-5.932185
 20
0.379632
 30
0.0
 40
0.08
  1
SCALE:
  7
SIMPLEX
100
AcDbText
  0
TEXT
  5
3D3
100
AcDbEntity
  8
BORDER
100
AcDbText
 10
-3.182285
 20
0.094238
 30
0.0
 40
0.08
  1
UNIT WT:
  7
SIMPLEX
100
AcDbText
  0
TEXT
  5
3D4
100
AcDbEntity
  8
BORDER
100
AcDbText
 10
-1.682385
 20
0.094238
 30
0.0
 40
0.08
  1
SHEET:
  7
SIMPLEX
100
AcDbText
  0
ATTDEF
  5
3D5
100
AcDbEntity
  8
BORDER
100
AcDbText
 10
-0.913627
 20
0.066433
 30
0.0
 40
0.11811
  1
1 OF 1
  7
SIMPLEX
 72
     1
 11
-0.649285
 21
0.125488
 31
0.0
100
AcDbAttributeDefinition
  3
SHEET NO.
  2
SHEET
 70
     0
 74
     2
  0
INSERT
  5
3D6
100
AcDbEntity
  8
BORDER
100
AcDbBlockReference
  2
*X1
 10
-15.476048
 20
-5.634702
 30
0.0
1001
ACAD
1000
HATCH
1002
{
1070
    16
1000
_U
1040
0.005
1040
0.785398
1070
     0
1002
}
  0
INSERT
  5
44E
100
AcDbEntity
  8
BORDER
100
AcDbBlockReference
  2
*X2
 10
-15.476048
 20
-5.634702
 30
0.0
1001
ACAD
1000
HATCH
1002
{
1070
    16
1000
_U
1040
0.005
1040
0.785398
1070
     0
1002
}
  0
ENDBLK
  5
4C6
100
AcDbEntity
  8
OBJ
100
AcDbBlockEnd
  0
ENDSEC
  0
SECTION
  2
ENTITIES
  0
CIRCLE
  5
3
100
AcDbEntity
  8
OBJ
  6
CONTINUOUS
100
AcDbCircle
 10
7.787435
 20
5.171013
 30
0.0
 40
0.4375
  0
CIRCLE
  5
6
100
AcDbEntity
  8
OBJ
  6
CONTINUOUS
100
AcDbCircle
 10
2.961985
 20
5.827092
 30
0.0
 40
0.2
  0
CIRCLE
  5
7
100
AcDbEntity
  8
OBJ
  6
CONTINUOUS
100
AcDbCircle
 10
2.305985
 20
4.515013
 30
0.0
 40
0.1015
  0
CIRCLE
  5
8
100
AcDbEntity
  8
OBJ
  6
CONTINUOUS
100
AcDbCircle
 10
2.305985
 20
4.515013
 30
0.0
 40
0.2
  0
CIRCLE
  5
9
100
AcDbEntity
  8
OBJ
  6
CONTINUOUS
100
AcDbCircle
 10
2.961985
 20
5.827092
 30
0.0
 40
0.1015
  0
ARC
  5
A
100
AcDbEntity
  8
OBJ
  6
CONTINUOUS
100
AcDbCircle
 10
4.097985
 20
5.761613
 30
0.0
 40
0.059
100
AcDbArc
 50
270.0
 51
0.0
  0
ARC
  5
B
100
AcDbEntity
  8
OBJ
  6
CONTINUOUS
100
AcDbCircle
 10
2.25125
 20
3.137013
 30
0.0
 40
0.059
100
AcDbArc
 50
90.0
 51
180.0
  0
ARC
  5
C
100
AcDbEntity
  8
OBJ
  6
CONTINUOUS
100
AcDbCircle
 10
2.145985
 20
4.698613
 30
0.0
 40
0.059
100
AcDbArc
 50
180.0
 51
240.526385
  0
ARC
  5
D
100
AcDbEntity
  8
OBJ
  6
CONTINUOUS
100
AcDbCircle
 10
2.145985
 20
5.643413
 30
0.0
 40
0.0591
100
AcDbArc
 50
90.0
 51
180.0
  0
ARC
  5
E
100
AcDbEntity
  8
OBJ
  6
CONTINUOUS
100
AcDbCircle
 10
2.371138
 20
3.254993
 30
0.0
 40
0.0592
100
AcDbArc
 50
270.0
 51
0.0
  0
ARC
  5
F
100
AcDbEntity
  8
OBJ
  6
CONTINUOUS
100
AcDbCircle
 10
2.703085
 20
5.761613
 30
0.0
 40
0.059
100
AcDbArc
 50
270.0
 51
0.0
  0
ARC
  5
10
100
AcDbEntity
  8
OBJ
  6
CONTINUOUS
100
AcDbCircle
 10
7.220735
 20
3.235313
 30
0.0
 40
0.0395
100
AcDbArc
 50
270.0
 51
0.0
  0
LINE
  5
11
100
AcDbEntity
  8
CEN
100
AcDbLine
 10
2.961985
 20
2.353021
 30
0.0
 11
2.961985
 21
3.245437
 31
0.0
  0
LINE
  5
15
100
AcDbEntity
  8
CEN
100
AcDbLine
 10
4.999977
 20
5.171013
 30
0.0
 11
4.105764
 21
5.171013
 31
0.0
  0
LINE
  5
16
100
AcDbEntity
  8
CEN
100
AcDbLine
 10
3.221677
 20
5.827013
 30
0.0
 11
2.702293
 21
5.827013
 31
0.0
  0
LINE
  5
17
100
AcDbEntity
  8
CEN
100
AcDbLine
 10
3.851699
 20
4.515013
 30
0.0
 11
2.072272
 21
4.515013
 31
0.0
  0
LINE
  5
18
100
AcDbEntity
  8
CEN
100
AcDbLine
 10
2.305985
 20
4.252021
 30
0.0
 11
2.305985
 21
4.774806
 31
0.0
  0
LINE
  5
19
100
AcDbEntity
  8
OBJ
  6
CONTINUOUS
100
AcDbLine
 10
4.097985
 20
5.702613
 30
0.0
 11
3.217685
 21
5.702613
 31
0.0
  0
LINE
  5
1A
100
AcDbEntity
  8
OBJ
  6
CONTINUOUS
100
AcDbLine
 10
2.305985
 20
4.315013
 30
0.0
 11
2.351598
 21
4.315013
 31
0.0
  0
LINE
  5
1B
100
AcDbEntity
  8
OBJ
  6
CONTINUOUS
100
AcDbLine
 10
2.145985
 20
5.702613
 30
0.0
 11
2.703085
 21
5.702613
 31
0.0
  0
LINE
  5
1C
100
AcDbEntity
  8
OBJ
  6
CONTINUOUS
100
AcDbLine
 10
2.086985
 20
5.643413
 30
0.0
 11
2.086985
 21
4.698613
 31
0.0
  0
LINE
  5
1D
100
AcDbEntity
  8
OBJ
  6
CONTINUOUS
100
AcDbLine
 10
2.761985
 20
5.827013
 30
0.0
 11
2.761985
 21
5.761613
 31
0.0
  0
LINE
  5
1E
100
AcDbEntity
  8
OBJ
  6
CONTINUOUS
100
AcDbLine
 10
3.73215
 20
3.006013
 30
0.0
 11
2.19215
 21
3.006013
 31
0.0
  0
LINE
  5
1F
100
AcDbEntity
  8
OBJ
  6
CONTINUOUS
100
AcDbLine
 10
2.25125
 20
3.196013
 30
0.0
 11
3.673094
 21
3.196013
 31
0.0
  0
LINE
  5
20
100
AcDbEntity
  8
OBJ
  6
CONTINUOUS
100
AcDbLine
 10
2.19215
 20
3.006013
 30
0.0
 11
2.19215
 21
3.137013
 31
0.0
  0
LINE
  5
21
100
AcDbEntity
  8
OBJ
  6
HIDDEN
100
AcDbLine
 10
3.39975
 20
3.086013
 30
0.0
 11
2.52455
 21
3.086013
 31
0.0
  0
LINE
  5
23
100
AcDbEntity
  8
OBJ
  6
CONTINUOUS
100
AcDbLine
 10
3.1298
 20
2.416013
 30
0.0
 11
2.79417
 21
2.416013
 31
0.0
  0
LINE
  5
24
100
AcDbEntity
  8
OBJ
  6
CONTINUOUS
100
AcDbLine
 10
2.774485
 20
2.435699
 30
0.0
 11
2.774485
 21
3.006013
 31
0.0
  0
LINE
  5
25
100
AcDbEntity
  8
OBJ
  6
HIDDEN
100
AcDbLine
 10
2.52455
 20
3.006013
 30
0.0
 11
2.52455
 21
3.086013
 31
0.0
  0
LINE
  5
26
100
AcDbEntity
  8
OBJ
  6
CONTINUOUS
100
AcDbLine
 10
3.149485
 20
3.006013
 30
0.0
 11
3.149485
 21
2.435699
 31
0.0
  0
LINE
  5
27
100
AcDbEntity
  8
OBJ
  6
HIDDEN
100
AcDbLine
 10
3.39975
 20
3.006013
 30
0.0
 11
3.39975
 21
3.086013
 31
0.0
  0
LINE
  5
28
100
AcDbEntity
  8
OBJ
  6
CONTINUOUS
100
AcDbLine
 10
3.73215
 20
3.136958
 30
0.0
 11
3.73215
 21
3.006013
 31
0.0
  0
LINE
  5
29
100
AcDbEntity
  8
OBJ
  6
CONTINUOUS
100
AcDbLine
 10
7.374286
 20
4.401013
 30
0.0
 11
8.200585
 21
4.401013
 31
0.0
  0
LINE
  5
2A
100
AcDbEntity
  8
OBJ
  6
CONTINUOUS
100
AcDbLine
 10
7.207435
 20
3.195813
 30
0.0
 11
7.769835
 21
3.195813
 31
0.0
  0
LINE
  5
2B
100
AcDbEntity
  8
OBJ
  6
CONTINUOUS
100
AcDbLine
 10
7.769835
 20
3.195813
 30
0.0
 11
7.892335
 21
3.195813
 31
0.0
  0
LINE
  5
2C
100
AcDbEntity
  8
OBJ
  6
CONTINUOUS
100
AcDbLine
 10
7.892335
 20
3.195813
 30
0.0
 11
8.004935
 21
3.195813
 31
0.0
  0
LINE
  5
2D
100
AcDbEntity
  8
OBJ
  6
CONTINUOUS
100
AcDbLine
 10
8.004935
 20
3.195813
 30
0.0
 11
8.367435
 21
3.195813
 31
0.0
  0
LINE
  5
2E
100
AcDbEntity
  8
OBJ
  6
HIDDEN
100
AcDbLine
 10
8.228835
 20
3.086013
 30
0.0
 11
7.353735
 21
3.086013
 31
0.0
  0
LINE
  5
2F
100
AcDbEntity
  8
OBJ
  6
HIDDEN
100
AcDbLine
 10
7.353735
 20
3.086013
 30
0.0
 11
7.353735
 21
3.086013
 31
0.0
  0
LINE
  5
30
100
AcDbEntity
  8
OBJ
  6
CONTINUOUS
100
AcDbLine
 10
8.397435
 20
3.006013
 30
0.0
 11
7.177435
 21
3.006013
 31
0.0
  0
LINE
  5
31
100
AcDbEntity
  8
OBJ
  6
HIDDEN
100
AcDbLine
 10
7.353735
 20
3.006413
 30
0.0
 11
7.353735
 21
3.086013
 31
0.0
  0
LINE
  5
32
100
AcDbEntity
  8
OBJ
  6
CONTINUOUS
100
AcDbLine
 10
7.177435
 20
3.165813
 30
0.0
 11
7.177435
 21
3.006013
 31
0.0
  0
LINE
  5
33
100
AcDbEntity
  8
OBJ
  6
CONTINUOUS
100
AcDbLine
 10
8.397435
 20
3.006013
 30
0.0
 11
8.397435
 21
3.165813
 31
0.0
  0
LINE
  5
34
100
AcDbEntity
  8
OBJ
  6
HIDDEN
100
AcDbLine
 10
8.228835
 20
3.006413
 30
0.0
 11
8.228835
 21
3.086013
 31
0.0
  0
LINE
  5
35
100
AcDbEntity
  8
OBJ
  6
CONTINUOUS
100
AcDbLine
 10
8.200585
 20
5.941013
 30
0.0
 11
7.374286
 21
5.941013
 31
0.0
  0
LINE
  5
36
100
AcDbEntity
  8
OBJ
  6
CONTINUOUS
100
AcDbLine
 10
8.412435
 20
6.027013
 30
0.0
 11
7.162435
 21
6.027013
 31
0.0
  0
LINE
  5
37
100
AcDbEntity
  8
OBJ
  6
CONTINUOUS
100
AcDbLine
 10
7.162435
 20
6.027013
 30
0.0
 11
7.162435
 21
5.627013
 31
0.0
  0
LINE
  5
38
100
AcDbEntity
  8
OBJ
  6
DASHED
100
AcDbLine
 10
7.162435
 20
5.679613
 30
0.0
 11
7.162435
 21
5.679613
 31
0.0
  0
LINE
  5
3A
100
AcDbEntity
  8
OBJ
  6
CONTINUOUS
100
AcDbLine
 10
7.162435
 20
5.627013
 30
0.0
 11
7.177435
 21
5.627013
 31
0.0
  0
LINE
  5
3B
100
AcDbEntity
  8
OBJ
  6
CONTINUOUS
100
AcDbLine
 10
8.412435
 20
6.027013
 30
0.0
 11
8.412435
 21
5.627013
 31
0.0
  0
LINE
  5
3C
100
AcDbEntity
  8
OBJ
  6
DASHED
100
AcDbLine
 10
8.412435
 20
5.679613
 30
0.0
 11
8.412435
 21
5.679613
 31
0.0
  0
LINE
  5
3D
100
AcDbEntity
  8
OBJ
  6
CONTINUOUS
100
AcDbLine
 10
8.412435
 20
5.627013
 30
0.0
 11
8.397435
 21
5.627013
 31
0.0
  0
ARC
  5
3E
100
AcDbEntity
  8
OBJ
  6
CONTINUOUS
100
AcDbCircle
 10
2.351598
 20
4.236273
 30
0.0
 40
0.07874
100
AcDbArc
 50
0.00939
 51
90.0
  0
ARC
  5
3F
100
AcDbEntity
  8
OBJ
  6
CONTINUOUS
100
AcDbCircle
 10
3.552832
 20
3.254993
 30
0.0
 40
0.0592
100
AcDbArc
 50
180.0
 51
270.0
  0
ARC
  5
40
100
AcDbEntity
  8
OBJ
  6
CONTINUOUS
100
AcDbCircle
 10
4.078245
 20
4.560873
 30
0.0
 40
0.07874
100
AcDbArc
 50
0.0
 51
90.0
  0
LINE
  5
41
100
AcDbEntity
  8
OBJ
  6
CONTINUOUS
100
AcDbLine
 10
3.149485
 20
2.435699
 30
0.0
 11
2.774485
 21
2.435699
 31
0.0
  0
LINE
  5
42
100
AcDbEntity
  8
OBJ
  6
CONTINUOUS
100
AcDbLine
 10
2.774485
 20
2.435699
 30
0.0
 11
2.79417
 21
2.416013
 31
0.0
  0
LINE
  5
43
100
AcDbEntity
  8
OBJ
  6
CONTINUOUS
100
AcDbLine
 10
3.1298
 20
2.416013
 30
0.0
 11
3.149485
 21
2.435699
 31
0.0
  0
LINE
  5
44
100
AcDbEntity
  8
OBJ
  6
CONTINUOUS
100
AcDbLine
 10
4.936985
 20
5.338828
 30
0.0
 11
4.936985
 21
5.003199
 31
0.0
  0
LINE
  5
45
100
AcDbEntity
  8
OBJ
  6
CONTINUOUS
100
AcDbLine
 10
4.9173
 20
5.358513
 30
0.0
 11
4.9173
 21
4.983513
 31
0.0
  0
LINE
  5
46
100
AcDbEntity
  8
OBJ
  6
CONTINUOUS
100
AcDbLine
 10
4.9173
 20
4.983513
 30
0.0
 11
4.346985
 21
4.983513
 31
0.0
  0
LINE
  5
47
100
AcDbEntity
  8
OBJ
  6
CONTINUOUS
100
AcDbLine
 10
4.9173
 20
4.983513
 30
0.0
 11
4.936985
 21
5.003199
 31
0.0
  0
LINE
  5
48
100
AcDbEntity
  8
OBJ
  6
CONTINUOUS
100
AcDbLine
 10
4.346985
 20
5.358513
 30
0.0
 11
4.9173
 21
5.358513
 31
0.0
  0
LINE
  5
49
100
AcDbEntity
  8
OBJ
  6
CONTINUOUS
100
AcDbLine
 10
4.936985
 20
5.338828
 30
0.0
 11
4.9173
 21
5.358513
 31
0.0
  0
LINE
  5
4A
100
AcDbEntity
  8
CEN
100
AcDbLine
 10
7.787435
 20
2.345399
 30
0.0
 11
7.787435
 21
6.090006
 31
0.0
  0
LINE
  5
4B
100
AcDbEntity
  8
OBJ
100
AcDbLine
 10
7.260235
 20
3.235313
 30
0.0
 11
7.260235
 21
4.315013
 31
0.0
  0
LINE
  5
4C
100
AcDbEntity
  8
OBJ
100
AcDbLine
 10
8.314635
 20
3.235313
 30
0.0
 11
8.314635
 21
4.315013
 31
0.0
  0
ARC
  5
4D
100
AcDbEntity
  8
OBJ
  6
CONTINUOUS
100
AcDbCircle
 10
8.354135
 20
3.235313
 30
0.0
 40
0.0395
100
AcDbArc
 50
180.0
 51
270.0
  0
LINE
  5
4E
100
AcDbEntity
  8
OBJ
100
AcDbLine
 10
7.177435
 20
4.597864
 30
0.0
 11
7.177435
 21
5.744163
 31
0.0
  0
LINE
  5
4F
100
AcDbEntity
  8
OBJ
100
AcDbLine
 10
8.397435
 20
4.597864
 30
0.0
 11
8.397435
 21
5.744163
 31
0.0
  0
LINE
  5
50
100
AcDbEntity
  8
CEN
100
AcDbLine
 10
7.094522
 20
5.171013
 30
0.0
 11
8.480349
 21
5.171013
 31
0.0
  0
ARC
  5
51
100
AcDbEntity
  8
OBJ
100
AcDbCircle
 10
7.374286
 20
5.744163
 30
0.0
 40
0.19685
100
AcDbArc
 50
90.0
 51
180.0
  0
ARC
  5
52
100
AcDbEntity
  8
OBJ
100
AcDbCircle
 10
8.200585
 20
5.744163
 30
0.0
 40
0.19685
100
AcDbArc
 50
0.0
 51
90.0
  0
ARC
  5
53
100
AcDbEntity
  8
OBJ
100
AcDbCircle
 10
8.200585
 20
4.597864
 30
0.0
 40
0.19685
100
AcDbArc
 50
270.0
 51
0.0
  0
ARC
  5
54
100
AcDbEntity
  8
OBJ
100
AcDbCircle
 10
7.374286
 20
4.597864
 30
0.0
 40
0.19685
100
AcDbArc
 50
180.0
 51
270.0
  0
LINE
  5
55
100
AcDbEntity
  8
OBJ
  6
CONTINUOUS
100
AcDbLine
 10
7.162435
 20
4.315013
 30
0.0
 11
7.162435
 21
4.715013
 31
0.0
  0
LINE
  5
56
100
AcDbEntity
  8
OBJ
  6
CONTINUOUS
100
AcDbLine
 10
7.177435
 20
4.715013
 30
0.0
 11
7.162435
 21
4.715013
 31
0.0
  0
LINE
  5
57
100
AcDbEntity
  8
OBJ
  6
CONTINUOUS
100
AcDbLine
 10
8.412435
 20
4.315013
 30
0.0
 11
7.162435
 21
4.315013
 31
0.0
  0
LINE
  5
58
100
AcDbEntity
  8
OBJ
  6
CONTINUOUS
100
AcDbLine
 10
8.412435
 20
4.315013
 30
0.0
 11
8.412435
 21
4.715013
 31
0.0
  0
LINE
  5
59
100
AcDbEntity
  8
OBJ
  6
CONTINUOUS
100
AcDbLine
 10
8.412435
 20
4.715013
 30
0.0
 11
8.397435
 21
4.715013
 31
0.0
  0
LINE
  5
5A
100
AcDbEntity
  8
OBJ
  6
DASHED
100
AcDbLine
 10
8.412435
 20
4.662413
 30
0.0
 11
8.412435
 21
4.662413
 31
0.0
  0
ARC
  5
5B
100
AcDbEntity
  8
OBJ
  6
CONTINUOUS
100
AcDbCircle
 10
3.673094
 20
3.136958
 30
0.0
 40
0.059055
100
AcDbArc
 50
0.0
 51
90.0
  0
POLYLINE
  5
5C
100
AcDbEntity
  8
DIM
100
AcDb2dPolyline
 66
     1
 10
0.0
 20
0.0
 30
0.0
  0
VERTEX
  5
5D
100
AcDbEntity
  8
DIM
100
AcDbVertex
100
AcDb2dVertex
 10
3.283141
 20
2.696958
 30
0.0
 42
-0.145669
  0
VERTEX
  5
5F
100
AcDbEntity
  8
DIM
100
AcDbVertex
100
AcDb2dVertex
 10
3.261563
 20
2.624467
 30
0.0
 42
-0.070216
  0
VERTEX
  5
60
100
AcDbEntity
  8
DIM
100
AcDbVertex
100
AcDb2dVertex
 10
3.217343
 20
2.573928
 30
0.0
 42
-0.077223
 70
     2
 50
212.380767
  0
SEQEND
  5
61
100
AcDbEntity
  8
DIM
  0
POLYLINE
  5
62
100
AcDbEntity
  8
DIM
100
AcDb2dPolyline
 66
     1
 10
0.0
 20
0.0
 30
0.0
  0
VERTEX
  5
63
100
AcDbEntity
  8
DIM
100
AcDbVertex
100
AcDb2dVertex
 10
2.706627
 20
2.573928
 30
0.0
 42
-0.070216
 70
     2
 50
147.619233
  0
VERTEX
  5
64
100
AcDbEntity
  8
DIM
100
AcDbVertex
100
AcDb2dVertex
 10
2.662407
 20
2.624467
 30
0.0
 42
-0.145669
  0
VERTEX
  5
65
100
AcDbEntity
  8
DIM
100
AcDbVertex
100
AcDb2dVertex
 10
2.64083
 20
2.696958
 30
0.0
 42
-0.145669
  0
VERTEX
  5
66
100
AcDbEntity
  8
DIM
100
AcDbVertex
100
AcDb2dVertex
 10
2.662407
 20
2.76945
 30
0.0
 42
-0.107167
  0
VERTEX
  5
67
100
AcDbEntity
  8
DIM
100
AcDbVertex
100
AcDb2dVertex
 10
2.734894
 20
2.840968
 30
0.0
 42
-0.077223
 70
     2
 50
32.380767
  0
VERTEX
  5
68
100
AcDbEntity
  8
DIM
100
AcDbVertex
100
AcDb2dVertex
 10
2.833766
 20
2.88406
 30
0.0
 42
-0.064306
  0
VERTEX
  5
69
100
AcDbEntity
  8
DIM
100
AcDbVertex
100
AcDb2dVertex
 10
2.961985
 20
2.900619
 30
0.0
 42
-0.064306
  0
VERTEX
  5
6A
100
AcDbEntity
  8
DIM
100
AcDbVertex
100
AcDb2dVertex
 10
3.090204
 20
2.88406
 30
0.0
 42
-0.077223
  0
VERTEX
  5
6B
100
AcDbEntity
  8
DIM
100
AcDbVertex
100
AcDb2dVertex
 10
3.189076
 20
2.840968
 30
0.0
 42
-0.107167
 70
     2
 50
327.619233
  0
VERTEX
  5
6C
100
AcDbEntity
  8
DIM
100
AcDbVertex
100
AcDb2dVertex
 10
3.261563
 20
2.76945
 30
0.0
 42
-0.145669
  0
VERTEX
  5
6D
100
AcDbEntity
  8
DIM
100
AcDbVertex
100
AcDb2dVertex
 10
3.283141
 20
2.696958
 30
0.0
 42
-0.145669
  0
SEQEND
  5
6E
100
AcDbEntity
  8
DIM
  0
SOLID
  5
6F
100
AcDbEntity
  8
DIM
100
AcDbTrace
 10
2.685358
 20
2.57932
 30
0.0
 11
2.698106
 21
2.595798
 31
0.0
 12
2.741165
 22
2.549315
 32
0.0
 13
2.741165
 23
2.549315
 33
0.0
  0
POLYLINE
  5
70
100
AcDbEntity
  8
DIM
100
AcDb2dPolyline
 66
     1
 10
0.0
 20
0.0
 30
0.0
  0
VERTEX
  5
71
100
AcDbEntity
  8
DIM
100
AcDbVertex
100
AcDb2dVertex
 10
4.778357
 20
5.426372
 30
0.0
 42
0.070216
 70
     2
 50
122.380767
  0
VERTEX
  5
72
100
AcDbEntity
  8
DIM
100
AcDbVertex
100
AcDb2dVertex
 10
4.727818
 20
5.470591
 30
0.0
 42
0.145669
 50
122.380767
  0
VERTEX
  5
73
100
AcDbEntity
  8
DIM
100
AcDbVertex
100
AcDb2dVertex
 10
4.655327
 20
5.492169
 30
0.0
 42
0.145669
  0
VERTEX
  5
74
100
AcDbEntity
  8
DIM
100
AcDbVertex
100
AcDb2dVertex
 10
4.582835
 20
5.470591
 30
0.0
 42
0.107167
  0
VERTEX
  5
75
100
AcDbEntity
  8
DIM
100
AcDbVertex
100
AcDb2dVertex
 10
4.511317
 20
5.398105
 30
0.0
 42
0.077223
 70
     2
 50
237.619233
  0
VERTEX
  5
76
100
AcDbEntity
  8
DIM
100
AcDbVertex
100
AcDb2dVertex
 10
4.468225
 20
5.299233
 30
0.0
 42
0.064306
 50
237.619233
  0
VERTEX
  5
77
100
AcDbEntity
  8
DIM
100
AcDbVertex
100
AcDb2dVertex
 10
4.451666
 20
5.171013
 30
0.0
 42
0.064306
  0
VERTEX
  5
78
100
AcDbEntity
  8
DIM
100
AcDbVertex
100
AcDb2dVertex
 10
4.468225
 20
5.042794
 30
0.0
 42
0.077223
  0
VERTEX
  5
79
100
AcDbEntity
  8
DIM
100
AcDbVertex
100
AcDb2dVertex
 10
4.511317
 20
4.943922
 30
0.0
 42
0.107167
 70
     2
 50
302.380767
  0
VERTEX
  5
7A
100
AcDbEntity
  8
DIM
100
AcDbVertex
100
AcDb2dVertex
 10
4.582835
 20
4.871435
 30
0.0
 42
0.145669
 50
302.380767
  0
VERTEX
  5
7B
100
AcDbEntity
  8
DIM
100
AcDbVertex
100
AcDb2dVertex
 10
4.655327
 20
4.849858
 30
0.0
 42
0.145669
  0
SEQEND
  5
7C
100
AcDbEntity
  8
DIM
  0
POLYLINE
  5
7D
100
AcDbEntity
  8
DIM
100
AcDb2dPolyline
 66
     1
 10
0.0
 20
0.0
 30
0.0
  0
VERTEX
  5
7E
100
AcDbEntity
  8
DIM
100
AcDbVertex
100
AcDb2dVertex
 10
4.655327
 20
4.849858
 30
0.0
 42
0.145669
  0
VERTEX
  5
7F
100
AcDbEntity
  8
DIM
100
AcDbVertex
100
AcDb2dVertex
 10
4.727818
 20
4.871435
 30
0.0
 42
0.070216
  0
VERTEX
  5
80
100
AcDbEntity
  8
DIM
100
AcDbVertex
100
AcDb2dVertex
 10
4.778357
 20
4.915655
 30
0.0
 42
0.077223
 70
     2
 50
57.619233
  0
SEQEND
  5
81
100
AcDbEntity
  8
DIM
  0
SOLID
  5
82
100
AcDbEntity
  8
DIM
100
AcDbTrace
 10
4.771792
 20
5.446994
 30
0.0
 11
4.755588
 21
5.433901
 31
0.0
 12
4.80297
 22
5.391834
 32
0.0
 13
4.80297
 23
5.391834
 33
0.0
  0
CIRCLE
  5
83
100
AcDbEntity
  8
OBJ
100
AcDbCircle
 10
7.787435
 20
5.171013
 30
0.0
 40
0.1875
  0
LINE
  5
84
100
AcDbEntity
  8
OBJ
100
AcDbLine
 10
2.430338
 20
4.236286
 30
0.0
 11
2.430338
 21
3.254993
 31
0.0
  0
LINE
  5
85
100
AcDbEntity
  8
OBJ
100
AcDbLine
 10
3.493632
 20
4.236286
 30
0.0
 11
3.493632
 21
3.254993
 31
0.0
  0
TEXT
  5
86
100
AcDbEntity
  8
TEXT
100
AcDbText
 10
0.160382
 20
1.13286
 30
0.0
 40
0.0625
  1
NOTES:
  7
ROMANS
100
AcDbText
  0
TEXT
  5
89
100
AcDbEntity
  8
TEXT
100
AcDbText
 10
0.261107
 20
1.002141
 30
0.0
 40
0.0625
  1
1. DIMENSIONS MARKED * APPLY TO BOTH MOUNTING FLANGES.
  7
ROMANS
100
AcDbText
  0
TEXT
  5
8A
100
AcDbEntity
  8
TEXT
100
AcDbText
 10
0.261107
 20
0.871423
 30
0.0
 40
0.0625
  1
2. ARROWS INDICATE RELATIVE ROTATION.
  7
ROMANS
100
AcDbText
  0
TEXT
  5
8B
100
AcDbEntity
  8
TEXT
100
AcDbText
 10
0.404137
 20
0.770233
 30
0.0
 40
0.0625
  1
DIRECTION OF ROTATION IS REVERSIBLE.
  7
ROMANS
100
AcDbText
  0
TEXT
  5
8C
100
AcDbEntity
  8
TEXT
100
AcDbText
 10
0.261107
 20
0.639515
 30
0.0
 40
0.0625
  1
3. R3000 GEAR RATIO IS A/B=1/1.
  7
ROMANS
100
AcDbText
  0
TEXT
  5
8D
100
AcDbEntity
  8
TEXT
100
AcDbText
 10
0.412263
 20
0.538324
 30
0.0
 40
0.0625
  1
R3000-2 GEAR RATIO IS A/B=2/1.
  7
ROMANS
100
AcDbText
  0
LINE
  5
8E
100
AcDbEntity
  8
OBJ
  6
CONTINUOUS
 62
     7
100
AcDbLine
 10
2.533965
 20
5.272135
 30
0.0
 11
2.540835
 21
5.272885
 31
0.0
  0
LINE
  5
8F
100
AcDbEntity
  8
OBJ
  6
CONTINUOUS
 62
     7
100
AcDbLine
 10
2.559981
 20
5.087581
 30
0.0
 11
2.529508
 21
5.087581
 31
0.0
  0
LINE
  5
90
100
AcDbEntity
  8
OBJ
  6
CONTINUOUS
 62
     7
100
AcDbLine
 10
2.534794
 20
5.124584
 30
0.0
 11
2.534794
 21
5.145106
 31
0.0
  0
LINE
  5
91
100
AcDbEntity
  8
OBJ
  6
CONTINUOUS
 62
     7
100
AcDbLine
 10
2.475132
 20
5.124584
 30
0.0
 11
2.475132
 21
5.145106
 31
0.0
  0
LINE
  5
92
100
AcDbEntity
  8
OBJ
  6
CONTINUOUS
 62
     7
100
AcDbLine
 10
2.455232
 20
5.124563
 30
0.0
 11
2.455232
 21
5.167183
 31
0.0
  0
ARC
  5
93
100
AcDbEntity
  8
OBJ
  6
CONTINUOUS
 62
     7
100
AcDbCircle
 10
2.53013
 20
5.124584
 30
0.0
 40
0.004664
100
AcDbArc
 50
266.177446
 51
0.0
  0
ARC
  5
94
100
AcDbEntity
  8
OBJ
  6
CONTINUOUS
 62
     7
100
AcDbCircle
 10
2.529508
 20
5.115276
 30
0.0
 40
0.004664
100
AcDbArc
 50
86.177446
 51
180.0
  0
LINE
  5
95
100
AcDbEntity
  8
OBJ
  6
CONTINUOUS
 62
     7
100
AcDbLine
 10
2.524844
 20
5.115276
 30
0.0
 11
2.524844
 21
5.092246
 31
0.0
  0
ARC
  5
96
100
AcDbEntity
  8
OBJ
  6
CONTINUOUS
 62
     7
100
AcDbCircle
 10
2.529508
 20
5.092246
 30
0.0
 40
0.004664
100
AcDbArc
 50
180.0
 51
270.0
  0
ARC
  5
97
100
AcDbEntity
  8
OBJ
  6
CONTINUOUS
 62
     7
100
AcDbCircle
 10
2.449946
 20
5.092246
 30
0.0
 40
0.004664
100
AcDbArc
 50
180.0
 51
270.0
  0
LINE
  5
98
100
AcDbEntity
  8
OBJ
  6
CONTINUOUS
 62
     7
100
AcDbLine
 10
2.445281
 20
5.092246
 30
0.0
 11
2.445281
 21
5.115256
 31
0.0
  0
ARC
  5
99
100
AcDbEntity
  8
OBJ
  6
CONTINUOUS
 62
     7
100
AcDbCircle
 10
2.449946
 20
5.115256
 30
0.0
 40
0.004664
100
AcDbArc
 50
86.177446
 51
180.0
  0
ARC
  5
9A
100
AcDbEntity
  8
OBJ
  6
CONTINUOUS
 62
     7
100
AcDbCircle
 10
2.450567
 20
5.124563
 30
0.0
 40
0.004664
100
AcDbArc
 50
266.177446
 51
0.0
  0
ARC
  5
9B
100
AcDbEntity
  8
OBJ
  6
CONTINUOUS
 62
     7
100
AcDbCircle
 10
2.479796
 20
5.124584
 30
0.0
 40
0.004664
100
AcDbArc
 50
180.0
 51
273.579525
  0
ARC
  5
9C
100
AcDbEntity
  8
OBJ
  6
CONTINUOUS
 62
     7
100
AcDbCircle
 10
2.480379
 20
5.115274
 30
0.0
 40
0.004664
100
AcDbArc
 50
0.0
 51
93.579525
  0
LINE
  5
9D
100
AcDbEntity
  8
OBJ
  6
CONTINUOUS
 62
     7
100
AcDbLine
 10
2.485043
 20
5.092246
 30
0.0
 11
2.485043
 21
5.115274
 31
0.0
  0
LINE
  5
9E
100
AcDbEntity
  8
OBJ
  6
CONTINUOUS
 62
     7
100
AcDbLine
 10
2.449946
 20
5.087581
 30
0.0
 11
2.480379
 21
5.087581
 31
0.0
  0
ARC
  5
9F
100
AcDbEntity
  8
OBJ
  6
CONTINUOUS
 62
     7
100
AcDbCircle
 10
2.480379
 20
5.092246
 30
0.0
 40
0.004664
100
AcDbArc
 50
270.0
 51
0.0
  0
LINE
  5
A0
100
AcDbEntity
  8
OBJ
  6
CONTINUOUS
 62
     7
100
AcDbLine
 10
2.49673
 20
5.238296
 30
0.0
 11
2.499889
 21
5.240191
 31
0.0
  0
LINE
  5
A1
100
AcDbEntity
  8
OBJ
  6
CONTINUOUS
 62
     7
100
AcDbLine
 10
2.499889
 20
5.240191
 30
0.0
 11
2.503245
 21
5.24185
 31
0.0
  0
LINE
  5
A2
100
AcDbEntity
  8
OBJ
  6
CONTINUOUS
 62
     7
100
AcDbLine
 10
2.503245
 20
5.24185
 30
0.0
 11
2.506799
 21
5.243311
 31
0.0
  0
LINE
  5
A3
100
AcDbEntity
  8
OBJ
  6
CONTINUOUS
 62
     7
100
AcDbLine
 10
2.506799
 20
5.243311
 30
0.0
 11
2.510511
 21
5.244653
 31
0.0
  0
LINE
  5
A4
100
AcDbEntity
  8
OBJ
  6
CONTINUOUS
 62
     7
100
AcDbLine
 10
2.510511
 20
5.244653
 30
0.0
 11
2.51438
 21
5.245838
 31
0.0
  0
LINE
  5
A5
100
AcDbEntity
  8
OBJ
  6
CONTINUOUS
 62
     7
100
AcDbLine
 10
2.51438
 20
5.245838
 30
0.0
 11
2.518368
 21
5.246943
 31
0.0
  0
LINE
  5
A6
100
AcDbEntity
  8
OBJ
  6
CONTINUOUS
 62
     7
100
AcDbLine
 10
2.518368
 20
5.246943
 30
0.0
 11
2.522435
 21
5.24793
 31
0.0
  0
LINE
  5
A7
100
AcDbEntity
  8
OBJ
  6
CONTINUOUS
 62
     7
100
AcDbLine
 10
2.522435
 20
5.24793
 30
0.0
 11
2.526581
 21
5.248839
 31
0.0
  0
LINE
  5
A8
100
AcDbEntity
  8
OBJ
  6
CONTINUOUS
 62
     7
100
AcDbLine
 10
2.49673
 20
5.263803
 30
0.0
 11
2.502298
 21
5.265857
 31
0.0
  0
LINE
  5
A9
100
AcDbEntity
  8
OBJ
  6
CONTINUOUS
 62
     7
100
AcDbLine
 10
2.502298
 20
5.265857
 30
0.0
 11
2.508181
 21
5.267634
 31
0.0
  0
LINE
  5
AA
100
AcDbEntity
  8
OBJ
  6
CONTINUOUS
 62
     7
100
AcDbLine
 10
2.508181
 20
5.267634
 30
0.0
 11
2.514301
 21
5.269094
 31
0.0
  0
LINE
  5
AB
100
AcDbEntity
  8
OBJ
  6
CONTINUOUS
 62
     7
100
AcDbLine
 10
2.514301
 20
5.269094
 30
0.0
 11
2.520698
 21
5.270279
 31
0.0
  0
LINE
  5
AC
100
AcDbEntity
  8
OBJ
  6
CONTINUOUS
 62
     7
100
AcDbLine
 10
2.520698
 20
5.270279
 30
0.0
 11
2.527252
 21
5.271306
 31
0.0
  0
LINE
  5
AD
100
AcDbEntity
  8
OBJ
  6
CONTINUOUS
 62
     7
100
AcDbLine
 10
2.527252
 20
5.271306
 30
0.0
 11
2.533965
 21
5.272135
 31
0.0
  0
ARC
  5
AE
100
AcDbEntity
  8
OBJ
  6
CONTINUOUS
 62
     7
100
AcDbCircle
 10
2.530327
 20
5.184285
 30
0.0
 40
0.004664
100
AcDbArc
 50
270.0
 51
0.0
  0
LINE
  5
AF
100
AcDbEntity
  8
OBJ
  6
CONTINUOUS
 62
     7
100
AcDbLine
 10
2.526581
 20
5.248839
 30
0.0
 11
2.529338
 21
5.249437
 31
0.0
  0
LINE
  5
B0
100
AcDbEntity
  8
OBJ
  6
CONTINUOUS
 62
     7
100
AcDbLine
 10
2.534992
 20
5.184285
 30
0.0
 11
2.534992
 21
5.244879
 31
0.0
  0
ARC
  5
B1
100
AcDbEntity
  8
OBJ
  6
CONTINUOUS
 62
     7
100
AcDbCircle
 10
2.530327
 20
5.244879
 30
0.0
 40
0.004664
100
AcDbArc
 50
360.0
 51
102.242331
  0
ARC
  5
B2
100
AcDbEntity
  8
OBJ
  6
CONTINUOUS
 62
     7
100
AcDbCircle
 10
2.53013
 20
5.145106
 30
0.0
 40
0.004664
100
AcDbArc
 50
0.0
 51
90.0
  0
LINE
  5
B3
100
AcDbEntity
  8
OBJ
  6
CONTINUOUS
 62
     7
100
AcDbLine
 10
2.476159
 20
5.190164
 30
0.0
 11
2.47679
 21
5.195376
 31
0.0
  0
LINE
  5
B4
100
AcDbEntity
  8
OBJ
  6
CONTINUOUS
 62
     7
100
AcDbLine
 10
2.47679
 20
5.195376
 30
0.0
 11
2.477501
 21
5.200469
 31
0.0
  0
LINE
  5
B5
100
AcDbEntity
  8
OBJ
  6
CONTINUOUS
 62
     7
100
AcDbLine
 10
2.477501
 20
5.200469
 30
0.0
 11
2.47833
 21
5.205444
 31
0.0
  0
LINE
  5
B6
100
AcDbEntity
  8
OBJ
  6
CONTINUOUS
 62
     7
100
AcDbLine
 10
2.47833
 20
5.205444
 30
0.0
 11
2.479396
 21
5.210262
 31
0.0
  0
LINE
  5
B7
100
AcDbEntity
  8
OBJ
  6
CONTINUOUS
 62
     7
100
AcDbLine
 10
2.479396
 20
5.210262
 30
0.0
 11
2.480621
 21
5.214881
 31
0.0
  0
LINE
  5
B8
100
AcDbEntity
  8
OBJ
  6
CONTINUOUS
 62
     7
100
AcDbLine
 10
2.480621
 20
5.214881
 30
0.0
 11
2.482121
 21
5.219264
 31
0.0
  0
LINE
  5
B9
100
AcDbEntity
  8
OBJ
  6
CONTINUOUS
 62
     7
100
AcDbLine
 10
2.482121
 20
5.219264
 30
0.0
 11
2.483858
 21
5.223371
 31
0.0
  0
LINE
  5
BA
100
AcDbEntity
  8
OBJ
  6
CONTINUOUS
 62
     7
100
AcDbLine
 10
2.483858
 20
5.223371
 30
0.0
 11
2.485951
 21
5.22724
 31
0.0
  0
LINE
  5
BB
100
AcDbEntity
  8
OBJ
  6
CONTINUOUS
 62
     7
100
AcDbLine
 10
2.485951
 20
5.22724
 30
0.0
 11
2.488399
 21
5.230754
 31
0.0
  0
LINE
  5
BC
100
AcDbEntity
  8
OBJ
  6
CONTINUOUS
 62
     7
100
AcDbLine
 10
2.488399
 20
5.230754
 30
0.0
 11
2.491203
 21
5.233913
 31
0.0
  0
LINE
  5
BD
100
AcDbEntity
  8
OBJ
  6
CONTINUOUS
 62
     7
100
AcDbLine
 10
2.491203
 20
5.233913
 30
0.0
 11
2.493848
 21
5.236243
 31
0.0
  0
LINE
  5
BE
100
AcDbEntity
  8
OBJ
  6
CONTINUOUS
 62
     7
100
AcDbLine
 10
2.455232
 20
5.167183
 30
0.0
 11
2.456061
 21
5.175989
 31
0.0
  0
LINE
  5
BF
100
AcDbEntity
  8
OBJ
  6
CONTINUOUS
 62
     7
100
AcDbLine
 10
2.456061
 20
5.175989
 30
0.0
 11
2.456969
 21
5.184754
 31
0.0
  0
LINE
  5
C0
100
AcDbEntity
  8
OBJ
  6
CONTINUOUS
 62
     7
100
AcDbLine
 10
2.456969
 20
5.184754
 30
0.0
 11
2.457996
 21
5.193362
 31
0.0
  0
LINE
  5
C1
100
AcDbEntity
  8
OBJ
  6
CONTINUOUS
 62
     7
100
AcDbLine
 10
2.457996
 20
5.193362
 30
0.0
 11
2.45922
 21
5.201812
 31
0.0
  0
LINE
  5
C2
100
AcDbEntity
  8
OBJ
  6
CONTINUOUS
 62
     7
100
AcDbLine
 10
2.45922
 20
5.201812
 30
0.0
 11
2.460641
 21
5.209985
 31
0.0
  0
LINE
  5
C3
100
AcDbEntity
  8
OBJ
  6
CONTINUOUS
 62
     7
100
AcDbLine
 10
2.460641
 20
5.209985
 30
0.0
 11
2.462378
 21
5.217882
 31
0.0
  0
LINE
  5
C4
100
AcDbEntity
  8
OBJ
  6
CONTINUOUS
 62
     7
100
AcDbLine
 10
2.462378
 20
5.217882
 30
0.0
 11
2.464471
 21
5.225384
 31
0.0
  0
LINE
  5
C5
100
AcDbEntity
  8
OBJ
  6
CONTINUOUS
 62
     7
100
AcDbLine
 10
2.464471
 20
5.225384
 30
0.0
 11
2.466998
 21
5.232452
 31
0.0
  0
LINE
  5
C6
100
AcDbEntity
  8
OBJ
  6
CONTINUOUS
 62
     7
100
AcDbLine
 10
2.466998
 20
5.232452
 30
0.0
 11
2.46996
 21
5.239046
 31
0.0
  0
LINE
  5
C7
100
AcDbEntity
  8
OBJ
  6
CONTINUOUS
 62
     7
100
AcDbLine
 10
2.46996
 20
5.239046
 30
0.0
 11
2.473474
 21
5.245088
 31
0.0
  0
LINE
  5
C8
100
AcDbEntity
  8
OBJ
  6
CONTINUOUS
 62
     7
100
AcDbLine
 10
2.473474
 20
5.245088
 30
0.0
 11
2.47758
 21
5.250458
 31
0.0
  0
LINE
  5
C9
100
AcDbEntity
  8
OBJ
  6
CONTINUOUS
 62
     7
100
AcDbLine
 10
2.47758
 20
5.250458
 30
0.0
 11
2.482358
 21
5.255196
 31
0.0
  0
LINE
  5
CA
100
AcDbEntity
  8
OBJ
  6
CONTINUOUS
 62
     7
100
AcDbLine
 10
2.482358
 20
5.255196
 30
0.0
 11
2.486741
 21
5.258512
 31
0.0
  0
LINE
  5
CB
100
AcDbEntity
  8
OBJ
  6
CONTINUOUS
 62
     7
100
AcDbLine
 10
2.486741
 20
5.258512
 30
0.0
 11
2.491558
 21
5.261355
 31
0.0
  0
LINE
  5
CC
100
AcDbEntity
  8
OBJ
  6
CONTINUOUS
 62
     7
100
AcDbLine
 10
2.475591
 20
5.184774
 30
0.0
 11
2.476159
 21
5.190164
 31
0.0
  0
ARC
  5
CD
100
AcDbEntity
  8
OBJ
  6
CONTINUOUS
 62
     7
100
AcDbCircle
 10
2.48023
 20
5.184285
 30
0.0
 40
0.004664
100
AcDbArc
 50
173.990994
 51
270.0
  0
ARC
  5
CE
100
AcDbEntity
  8
OBJ
  6
CONTINUOUS
 62
     7
100
AcDbCircle
 10
2.479796
 20
5.145106
 30
0.0
 40
0.004664
100
AcDbArc
 50
90.0
 51
180.0
  0
LINE
  5
CF
100
AcDbEntity
  8
OBJ
  6
CONTINUOUS
 62
     7
100
AcDbLine
 10
2.493848
 20
5.236243
 30
0.0
 11
2.49673
 21
5.238296
 31
0.0
  0
LINE
  5
D0
100
AcDbEntity
  8
OBJ
  6
CONTINUOUS
 62
     7
100
AcDbLine
 10
2.491558
 20
5.261355
 30
0.0
 11
2.49673
 21
5.263803
 31
0.0
  0
LINE
  5
D1
100
AcDbEntity
  8
OBJ
  6
CONTINUOUS
 62
     7
100
AcDbLine
 10
2.479796
 20
5.14977
 30
0.0
 11
2.53013
 21
5.14977
 31
0.0
  0
LINE
  5
D2
100
AcDbEntity
  8
OBJ
  6
CONTINUOUS
 62
     7
100
AcDbLine
 10
2.48023
 20
5.179621
 30
0.0
 11
2.530327
 21
5.179621
 31
0.0
  0
LINE
  5
D3
100
AcDbEntity
  8
OBJ
  6
CONTINUOUS
 62
     7
100
AcDbLine
 10
3.445437
 20
5.134931
 30
0.0
 11
3.446096
 21
5.131818
 31
0.0
  0
LINE
  5
D4
100
AcDbEntity
  8
OBJ
  6
CONTINUOUS
 62
     7
100
AcDbLine
 10
3.411107
 20
5.130622
 30
0.0
 11
3.412068
 21
5.134466
 31
0.0
  0
ARC
  5
D5
100
AcDbEntity
  8
OBJ
  6
CONTINUOUS
 62
     7
100
AcDbCircle
 10
3.370413
 20
5.132205
 30
0.0
 40
0.00597
100
AcDbArc
 50
345.963757
 51
90.0
  0
LINE
  5
D6
100
AcDbEntity
  8
OBJ
  6
CONTINUOUS
 62
     7
100
AcDbLine
 10
3.302125
 20
5.118044
 30
0.0
 11
3.306027
 21
5.133653
 31
0.0
  0
ARC
  5
D7
100
AcDbEntity
  8
OBJ
  6
CONTINUOUS
 62
     7
100
AcDbCircle
 10
3.270105
 20
5.132205
 30
0.0
 40
0.00597
100
AcDbArc
 50
345.963757
 51
90.0
  0
LINE
  5
D8
100
AcDbEntity
  8
OBJ
  6
CONTINUOUS
 62
     7
100
AcDbLine
 10
3.373992
 20
5.017982
 30
0.0
 11
3.403475
 21
5.135914
 31
0.0
  0
LINE
  5
D9
100
AcDbEntity
  8
OBJ
  6
CONTINUOUS
 62
     7
100
AcDbLine
 10
3.441683
 20
5.13718
 30
0.0
 11
3.412877
 21
5.128803
 31
0.0
  0
ARC
  5
DA
100
AcDbEntity
  8
OBJ
  6
CONTINUOUS
 62
     7
100
AcDbCircle
 10
3.174013
 20
5.132205
 30
0.0
 40
0.00597
100
AcDbArc
 50
345.963757
 51
90.0
  0
LINE
  5
DB
100
AcDbEntity
  8
OBJ
100
AcDbLine
 10
3.054325
 20
5.13427
 30
0.0
 11
3.072615
 21
5.11598
 31
0.0
  0
LINE
  5
DC
100
AcDbEntity
  8
OBJ
  6
CONTINUOUS
 62
     7
100
AcDbLine
 10
3.126916
 20
5.135914
 30
0.0
 11
3.125363
 21
5.129705
 31
0.0
  0
LINE
  5
DD
100
AcDbEntity
  8
OBJ
  6
CONTINUOUS
 62
     7
100
AcDbLine
 10
3.205719
 20
5.133653
 30
0.0
 11
3.178656
 21
5.025401
 31
0.0
  0
ARC
  5
DE
100
AcDbEntity
  8
OBJ
100
AcDbCircle
 10
2.961575
 20
5.132168
 30
0.0
 40
0.004664
100
AcDbArc
 50
315.0
 51
45.0
  0
ARC
  5
DF
100
AcDbEntity
  8
OBJ
100
AcDbCircle
 10
2.983597
 20
5.130972
 30
0.0
 40
0.004664
100
AcDbArc
 50
337.5
 51
90.0
  0
ARC
  5
E0
100
AcDbEntity
  8
OBJ
100
AcDbCircle
 10
2.977538
 20
5.130972
 30
0.0
 40
0.004664
100
AcDbArc
 50
90.0
 51
157.5
  0
ARC
  5
E1
100
AcDbEntity
  8
OBJ
100
AcDbCircle
 10
2.998947
 20
5.130972
 30
0.0
 40
0.004664
100
AcDbArc
 50
90.0
 51
180.0
  0
ARC
  5
E2
100
AcDbEntity
  8
OBJ
100
AcDbCircle
 10
3.004544
 20
5.130972
 30
0.0
 40
0.004664
100
AcDbArc
 50
0.0
 51
90.0
  0
ARC
  5
E3
100
AcDbEntity
  8
OBJ
100
AcDbCircle
 10
3.025952
 20
5.130972
 30
0.0
 40
0.004664
100
AcDbArc
 50
22.5
 51
90.0
  0
ARC
  5
E4
100
AcDbEntity
  8
OBJ
100
AcDbCircle
 10
3.019894
 20
5.130972
 30
0.0
 40
0.004664
100
AcDbArc
 50
90.0
 51
202.5
  0
ARC
  5
E5
100
AcDbEntity
  8
OBJ
100
AcDbCircle
 10
3.043111
 20
5.130972
 30
0.0
 40
0.004664
100
AcDbArc
 50
90.0
 51
225.0
  0
LINE
  5
E6
100
AcDbEntity
  8
OBJ
  6
CONTINUOUS
 62
     7
100
AcDbLine
 10
2.919932
 20
5.139765
 30
0.0
 11
2.919932
 21
5.127557
 31
0.0
  0
LINE
  5
E7
100
AcDbEntity
  8
OBJ
100
AcDbLine
 10
2.954319
 20
5.139424
 30
0.0
 11
2.935856
 21
5.120961
 31
0.0
  0
LINE
  5
E8
100
AcDbEntity
  8
OBJ
  6
CONTINUOUS
 62
     7
100
AcDbLine
 10
2.872431
 20
5.173851
 30
0.0
 11
2.872431
 21
5.106811
 31
0.0
  0
LINE
  5
E9
100
AcDbEntity
  8
OBJ
  6
CONTINUOUS
 62
     7
100
AcDbLine
 10
2.905007
 20
5.12118
 30
0.0
 11
2.905007
 21
5.271703
 31
0.0
  0
LINE
  5
EA
100
AcDbEntity
  8
OBJ
  6
CONTINUOUS
 62
     7
100
AcDbLine
 10
2.842304
 20
5.144001
 30
0.0
 11
2.842304
 21
5.123518
 31
0.0
  0
LINE
  5
EB
100
AcDbEntity
  8
OBJ
  6
CONTINUOUS
 62
     7
100
AcDbLine
 10
2.754094
 20
5.244732
 30
0.0
 11
2.754173
 21
5.106811
 31
0.0
  0
LINE
  5
EC
100
AcDbEntity
  8
OBJ
  6
CONTINUOUS
 62
     7
100
AcDbLine
 10
2.772889
 20
5.229807
 30
0.0
 11
2.772889
 21
5.128784
 31
0.0
  0
LINE
  5
ED
100
AcDbEntity
  8
OBJ
  6
CONTINUOUS
 62
     7
100
AcDbLine
 10
2.692449
 20
5.089753
 30
0.0
 11
2.632938
 21
5.202529
 31
0.0
  0
LINE
  5
EE
100
AcDbEntity
  8
OBJ
  6
CONTINUOUS
 62
     7
100
AcDbLine
 10
2.713663
 20
5.091928
 30
0.0
 11
2.7137
 21
5.221885
 31
0.0
  0
LINE
  5
EF
100
AcDbEntity
  8
OBJ
  6
CONTINUOUS
 62
     7
100
AcDbLine
 10
2.604248
 20
5.124603
 30
0.0
 11
2.604248
 21
5.221747
 31
0.0
  0
LINE
  5
F0
100
AcDbEntity
  8
OBJ
  6
CONTINUOUS
 62
     7
100
AcDbLine
 10
2.624149
 20
5.124347
 30
0.0
 11
2.624149
 21
5.200352
 31
0.0
  0
LINE
  5
F1
100
AcDbEntity
  8
OBJ
  6
CONTINUOUS
 62
     7
100
AcDbLine
 10
2.554695
 20
5.124563
 30
0.0
 11
2.554695
 21
5.269041
 31
0.0
  0
LINE
  5
F2
100
AcDbEntity
  8
OBJ
  6
CONTINUOUS
 62
     7
100
AcDbLine
 10
3.162237
 20
5.125996
 30
0.0
 11
3.128259
 21
5.125996
 31
0.0
  0
LINE
  5
F3
100
AcDbEntity
  8
OBJ
  6
CONTINUOUS
 62
     7
100
AcDbLine
 10
3.165133
 20
5.122287
 30
0.0
 11
3.14174
 21
5.028714
 31
0.0
  0
LINE
  5
F4
100
AcDbEntity
  8
OBJ
  6
CONTINUOUS
 62
     7
100
AcDbLine
 10
3.179805
 20
5.130757
 30
0.0
 11
3.15238
 21
5.021057
 31
0.0
  0
LINE
  5
F5
100
AcDbEntity
  8
OBJ
  6
CONTINUOUS
 62
     7
100
AcDbLine
 10
2.852531
 20
5.08691
 30
0.0
 11
2.774074
 21
5.08691
 31
0.0
  0
LINE
  5
F6
100
AcDbEntity
  8
OBJ
  6
CONTINUOUS
 62
     7
100
AcDbLine
 10
2.782213
 20
5.118854
 30
0.0
 11
2.83764
 21
5.118854
 31
0.0
  0
ARC
  5
F7
100
AcDbEntity
  8
OBJ
  6
CONTINUOUS
 62
     7
100
AcDbCircle
 10
2.83764
 20
5.123518
 30
0.0
 40
0.004664
100
AcDbArc
 50
270.0
 51
0.0
  0
ARC
  5
F8
100
AcDbEntity
  8
OBJ
  6
CONTINUOUS
 62
     7
100
AcDbCircle
 10
2.696574
 20
5.09193
 30
0.0
 40
0.004664
100
AcDbArc
 50
207.819998
 51
270.0
  0
LINE
  5
F9
100
AcDbEntity
  8
OBJ
  6
CONTINUOUS
 62
     7
100
AcDbLine
 10
2.696574
 20
5.087266
 30
0.0
 11
2.708999
 21
5.087266
 31
0.0
  0
ARC
  5
FA
100
AcDbEntity
  8
OBJ
  6
CONTINUOUS
 62
     7
100
AcDbCircle
 10
2.708999
 20
5.09193
 30
0.0
 40
0.004664
100
AcDbArc
 50
270.0
 51
359.983755
  0
ARC
  5
FB
100
AcDbEntity
  8
OBJ
  6
CONTINUOUS
 62
     7
100
AcDbCircle
 10
2.774074
 20
5.106811
 30
0.0
 40
0.0199
100
AcDbArc
 50
179.9989
 51
270.0
  0
ARC
  5
FC
100
AcDbEntity
  8
OBJ
  6
CONTINUOUS
 62
     7
100
AcDbCircle
 10
2.78284
 20
5.128784
 30
0.0
 40
0.00995
100
AcDbArc
 50
180.0
 51
266.390108
  0
ARC
  5
FD
100
AcDbEntity
  8
OBJ
  6
CONTINUOUS
 62
     7
100
AcDbCircle
 10
2.598962
 20
5.115295
 30
0.0
 40
0.004664
100
AcDbArc
 50
86.177446
 51
180.0
  0
ARC
  5
FE
100
AcDbEntity
  8
OBJ
  6
CONTINUOUS
 62
     7
100
AcDbCircle
 10
2.599584
 20
5.124603
 30
0.0
 40
0.004664
100
AcDbArc
 50
266.177446
 51
0.0
  0
ARC
  5
FF
100
AcDbEntity
  8
OBJ
  6
CONTINUOUS
 62
     7
100
AcDbCircle
 10
2.628813
 20
5.124347
 30
0.0
 40
0.004664
100
AcDbArc
 50
180.0
 51
273.822554
  0
ARC
  5
100
100
AcDbEntity
  8
OBJ
  6
CONTINUOUS
 62
     7
100
AcDbCircle
 10
2.629435
 20
5.115039
 30
0.0
 40
0.004664
100
AcDbArc
 50
0.0
 51
93.822554
  0
LINE
  5
101
100
AcDbEntity
  8
OBJ
  6
CONTINUOUS
 62
     7
100
AcDbLine
 10
2.634099
 20
5.09193
 30
0.0
 11
2.634099
 21
5.115039
 31
0.0
  0
ARC
  5
102
100
AcDbEntity
  8
OBJ
  6
CONTINUOUS
 62
     7
100
AcDbCircle
 10
2.629435
 20
5.09193
 30
0.0
 40
0.004664
100
AcDbArc
 50
270.0
 51
0.0
  0
LINE
  5
103
100
AcDbEntity
  8
OBJ
  6
CONTINUOUS
 62
     7
100
AcDbLine
 10
2.598962
 20
5.087266
 30
0.0
 11
2.629435
 21
5.087266
 31
0.0
  0
LINE
  5
104
100
AcDbEntity
  8
OBJ
  6
CONTINUOUS
 62
     7
100
AcDbLine
 10
2.594298
 20
5.09193
 30
0.0
 11
2.594298
 21
5.115295
 31
0.0
  0
ARC
  5
105
100
AcDbEntity
  8
OBJ
  6
CONTINUOUS
 62
     7
100
AcDbCircle
 10
2.598962
 20
5.09193
 30
0.0
 40
0.004664
100
AcDbArc
 50
180.0
 51
270.0
  0
ARC
  5
106
100
AcDbEntity
  8
OBJ
  6
CONTINUOUS
 62
     7
100
AcDbCircle
 10
2.559981
 20
5.092246
 30
0.0
 40
0.004664
100
AcDbArc
 50
270.0
 51
0.0
  0
LINE
  5
107
100
AcDbEntity
  8
OBJ
  6
CONTINUOUS
 62
     7
100
AcDbLine
 10
2.564645
 20
5.092246
 30
0.0
 11
2.564645
 21
5.115256
 31
0.0
  0
ARC
  5
108
100
AcDbEntity
  8
OBJ
  6
CONTINUOUS
 62
     7
100
AcDbCircle
 10
2.559981
 20
5.115256
 30
0.0
 40
0.004664
100
AcDbArc
 50
0.0
 51
93.822554
  0
ARC
  5
109
100
AcDbEntity
  8
OBJ
  6
CONTINUOUS
 62
     7
100
AcDbCircle
 10
2.559359
 20
5.124563
 30
0.0
 40
0.004664
100
AcDbArc
 50
180.0
 51
273.822554
  0
ARC
  5
10A
100
AcDbEntity
  8
OBJ
100
AcDbCircle
 10
3.054391
 20
5.1065
 30
0.0
 40
0.004664
100
AcDbArc
 50
270.0
 51
45.0
  0
ARC
  5
10B
100
AcDbEntity
  8
OBJ
100
AcDbCircle
 10
3.069317
 20
5.112682
 30
0.0
 40
0.004664
100
AcDbArc
 50
0.0
 51
45.0
  0
LINE
  5
10C
100
AcDbEntity
  8
OBJ
100
AcDbLine
 10
3.073981
 20
5.096678
 30
0.0
 11
3.073981
 21
5.112682
 31
0.0
  0
ARC
  5
10D
100
AcDbEntity
  8
OBJ
100
AcDbCircle
 10
3.069317
 20
5.096678
 30
0.0
 40
0.004664
100
AcDbArc
 50
315.0
 51
360.0
  0
LINE
  5
10E
100
AcDbEntity
  8
OBJ
100
AcDbLine
 10
3.072615
 20
5.09338
 30
0.0
 11
3.067511
 21
5.088276
 31
0.0
  0
ARC
  5
10F
100
AcDbEntity
  8
OBJ
100
AcDbCircle
 10
3.064213
 20
5.091574
 30
0.0
 40
0.004664
100
AcDbArc
 50
270.0
 51
315.0
  0
ARC
  5
110
100
AcDbEntity
  8
OBJ
  6
CONTINUOUS
 62
     7
100
AcDbCircle
 10
3.057337
 20
5.060522
 30
0.0
 40
0.002985
100
AcDbArc
 50
90.0
 51
165.963757
  0
LINE
  5
111
100
AcDbEntity
  8
OBJ
  6
CONTINUOUS
 62
     7
100
AcDbLine
 10
3.063737
 20
5.063507
 30
0.0
 11
3.057337
 21
5.063507
 31
0.0
  0
ARC
  5
112
100
AcDbEntity
  8
OBJ
  6
CONTINUOUS
 62
     7
100
AcDbCircle
 10
3.063737
 20
5.060522
 30
0.0
 40
0.002985
100
AcDbArc
 50
345.963757
 51
90.0
  0
ARC
  5
113
100
AcDbEntity
  8
OBJ
  6
CONTINUOUS
 62
     7
100
AcDbCircle
 10
3.128259
 20
5.128981
 30
0.0
 40
0.002985
100
AcDbArc
 50
165.963757
 51
270.0
  0
ARC
  5
114
100
AcDbEntity
  8
OBJ
  6
CONTINUOUS
 62
     7
100
AcDbCircle
 10
3.143692
 20
5.023229
 30
0.0
 40
0.008955
100
AcDbArc
 50
270.0
 51
345.963757
  0
ARC
  5
115
100
AcDbEntity
  8
OBJ
  6
CONTINUOUS
 62
     7
100
AcDbCircle
 10
3.06212
 20
5.029438
 30
0.0
 40
0.002985
100
AcDbArc
 50
165.963757
 51
270.0
  0
LINE
  5
116
100
AcDbEntity
  8
OBJ
  6
CONTINUOUS
 62
     7
100
AcDbLine
 10
3.138844
 20
5.026452
 30
0.0
 11
3.06212
 21
5.026452
 31
0.0
  0
ARC
  5
117
100
AcDbEntity
  8
OBJ
  6
CONTINUOUS
 62
     7
100
AcDbCircle
 10
3.138844
 20
5.029438
 30
0.0
 40
0.002985
100
AcDbArc
 50
270.0
 51
345.963757
  0
LINE
  5
118
100
AcDbEntity
  8
OBJ
  6
CONTINUOUS
 62
     7
100
AcDbLine
 10
3.143692
 20
5.014273
 30
0.0
 11
3.054168
 21
5.014273
 31
0.0
  0
LINE
  5
119
100
AcDbEntity
  8
OBJ
  6
CONTINUOUS
 62
     7
100
AcDbLine
 10
3.066633
 20
5.059798
 30
0.0
 11
3.059224
 21
5.030162
 31
0.0
  0
ARC
  5
11A
100
AcDbEntity
  8
OBJ
  6
CONTINUOUS
 62
     7
100
AcDbCircle
 10
2.982504
 20
5.056936
 30
0.0
 40
0.004664
100
AcDbArc
 50
345.963757
 51
90.0
  0
ARC
  5
11B
100
AcDbEntity
  8
OBJ
100
AcDbCircle
 10
2.957305
 20
5.1065
 30
0.0
 40
0.004664
100
AcDbArc
 50
270.0
 51
337.5
  0
ARC
  5
11C
100
AcDbEntity
  8
OBJ
100
AcDbCircle
 10
2.983557
 20
5.1065
 30
0.0
 40
0.004664
100
AcDbArc
 50
157.5
 51
270.0
  0
LINE
  5
11D
100
AcDbEntity
  8
OBJ
  6
CONTINUOUS
 62
     7
100
AcDbLine
 10
2.983557
 20
5.101836
 30
0.0
 11
2.989618
 21
5.101836
 31
0.0
  0
ARC
  5
11E
100
AcDbEntity
  8
OBJ
100
AcDbCircle
 10
2.989618
 20
5.1065
 30
0.0
 40
0.004664
100
AcDbArc
 50
270.0
 51
360.0
  0
ARC
  5
11F
100
AcDbEntity
  8
OBJ
100
AcDbCircle
 10
3.013872
 20
5.1065
 30
0.0
 40
0.004664
100
AcDbArc
 50
180.0
 51
270.0
  0
ARC
  5
120
100
AcDbEntity
  8
OBJ
100
AcDbCircle
 10
3.019933
 20
5.1065
 30
0.0
 40
0.004664
100
AcDbArc
 50
270.0
 51
22.5
  0
ARC
  5
121
100
AcDbEntity
  8
OBJ
100
AcDbCircle
 10
3.046186
 20
5.1065
 30
0.0
 40
0.004664
100
AcDbArc
 50
202.5
 51
270.0
  0
LINE
  5
122
100
AcDbEntity
  8
OBJ
100
AcDbLine
 10
3.019933
 20
5.101836
 30
0.0
 11
3.013872
 21
5.101836
 31
0.0
  0
LINE
  5
123
100
AcDbEntity
  8
OBJ
100
AcDbLine
 10
2.979247
 20
5.108285
 30
0.0
 11
2.987906
 21
5.129187
 31
0.0
  0
LINE
  5
124
100
AcDbEntity
  8
OBJ
100
AcDbLine
 10
2.961614
 20
5.104715
 30
0.0
 11
2.973229
 21
5.132757
 31
0.0
  0
LINE
  5
125
100
AcDbEntity
  8
OBJ
100
AcDbLine
 10
2.994282
 20
5.1065
 30
0.0
 11
2.994282
 21
5.130972
 31
0.0
  0
LINE
  5
126
100
AcDbEntity
  8
OBJ
100
AcDbLine
 10
3.009208
 20
5.1065
 30
0.0
 11
3.009208
 21
5.130972
 31
0.0
  0
LINE
  5
127
100
AcDbEntity
  8
OBJ
100
AcDbLine
 10
3.041876
 20
5.104715
 30
0.0
 11
3.030261
 21
5.132757
 31
0.0
  0
LINE
  5
128
100
AcDbEntity
  8
OBJ
100
AcDbLine
 10
3.024243
 20
5.108285
 30
0.0
 11
3.015584
 21
5.129187
 31
0.0
  0
LINE
  5
129
100
AcDbEntity
  8
OBJ
100
AcDbLine
 10
2.906373
 20
5.117882
 30
0.0
 11
2.937345
 21
5.08691
 31
0.0
  0
ARC
  5
12A
100
AcDbEntity
  8
OBJ
  6
CONTINUOUS
 62
     7
100
AcDbCircle
 10
2.949512
 20
5.056936
 30
0.0
 40
0.004664
100
AcDbArc
 50
90.0
 51
160.926627
  0
ARC
  5
12B
100
AcDbEntity
  8
OBJ
100
AcDbCircle
 10
2.92926
 20
5.127557
 30
0.0
 40
0.009328
100
AcDbArc
 50
180.0
 51
315.0
  0
ARC
  5
12C
100
AcDbEntity
  8
OBJ
100
AcDbCircle
 10
2.909671
 20
5.12118
 30
0.0
 40
0.004664
100
AcDbArc
 50
180.0
 51
225.0
  0
ARC
  5
12D
100
AcDbEntity
  8
OBJ
100
AcDbCircle
 10
2.949099
 20
5.1065
 30
0.0
 40
0.004664
100
AcDbArc
 50
135.0
 51
270.0
  0
LINE
  5
12E
100
AcDbEntity
  8
OBJ
  6
CONTINUOUS
 62
     7
100
AcDbLine
 10
2.949512
 20
5.0616
 30
0.0
 11
2.982504
 21
5.0616
 31
0.0
  0
LINE
  5
12F
100
AcDbEntity
  8
OBJ
100
AcDbLine
 10
2.964873
 20
5.12887
 30
0.0
 11
2.945801
 21
5.109798
 31
0.0
  0
LINE
  5
130
100
AcDbEntity
  8
OBJ
100
AcDbLine
 10
2.949099
 20
5.101836
 30
0.0
 11
2.957305
 21
5.101836
 31
0.0
  0
ARC
  5
131
100
AcDbEntity
  8
OBJ
  6
CONTINUOUS
 62
     7
100
AcDbCircle
 10
2.904691
 20
5.002452
 30
0.0
 40
0.0199
100
AcDbArc
 50
270.0
 51
340.9259
  0
LINE
  5
132
100
AcDbEntity
  8
OBJ
  6
CONTINUOUS
 62
     7
100
AcDbLine
 10
2.923486
 20
4.995936
 30
0.0
 11
2.945104
 21
5.05846
 31
0.0
  0
LINE
  5
133
100
AcDbEntity
  8
OBJ
  6
CONTINUOUS
 62
     7
100
AcDbLine
 10
2.970026
 20
4.987794
 30
0.0
 11
2.987029
 21
5.055805
 31
0.0
  0
LINE
  5
134
100
AcDbEntity
  8
OBJ
100
AcDbLine
 10
3.054391
 20
5.101836
 30
0.0
 11
3.046186
 21
5.101836
 31
0.0
  0
LINE
  5
135
100
AcDbEntity
  8
OBJ
100
AcDbLine
 10
3.039813
 20
5.127674
 30
0.0
 11
3.057689
 21
5.109798
 31
0.0
  0
LINE
  5
136
100
AcDbEntity
  8
OBJ
  6
CONTINUOUS
 62
     7
100
AcDbLine
 10
2.937345
 20
5.08691
 30
0.0
 11
3.064213
 21
5.08691
 31
0.0
  0
ARC
  5
137
100
AcDbEntity
  8
OBJ
  6
CONTINUOUS
 62
     7
100
AcDbCircle
 10
3.054168
 20
5.023229
 30
0.0
 40
0.008955
100
AcDbArc
 50
165.963757
 51
270.0
  0
LINE
  5
138
100
AcDbEntity
  8
OBJ
  6
CONTINUOUS
 62
     7
100
AcDbLine
 10
3.054441
 20
5.061246
 30
0.0
 11
3.04548
 21
5.025401
 31
0.0
  0
ARC
  5
139
100
AcDbEntity
  8
OBJ
  6
CONTINUOUS
 62
     7
100
AcDbCircle
 10
2.852531
 20
5.106811
 30
0.0
 40
0.0199
100
AcDbArc
 50
270.0
 51
0.0152
  0
LINE
  5
13A
100
AcDbEntity
  8
OBJ
  6
CONTINUOUS
 62
     7
100
AcDbLine
 10
3.44402
 20
5.128337
 30
0.0
 11
3.416731
 21
5.120288
 31
0.0
  0
ARC
  5
13B
100
AcDbEntity
  8
OBJ
  6
CONTINUOUS
 62
     7
100
AcDbCircle
 10
3.443176
 20
5.1312
 30
0.0
 40
0.002985
100
AcDbArc
 50
286.432542
 51
11.949757
  0
ARC
  5
13C
100
AcDbEntity
  8
OBJ
  6
CONTINUOUS
 62
     7
100
AcDbCircle
 10
3.412555
 20
5.13026
 30
0.0
 40
0.001493
100
AcDbArc
 50
165.963757
 51
282.458883
  0
ARC
  5
13D
100
AcDbEntity
  8
OBJ
  6
CONTINUOUS
 62
     7
100
AcDbCircle
 10
3.410282
 20
5.115013
 30
0.0
 40
0.002985
100
AcDbArc
 50
108.285352
 51
165.963757
  0
ARC
  5
13E
100
AcDbEntity
  8
OBJ
  6
CONTINUOUS
 62
     7
100
AcDbCircle
 10
3.346921
 20
5.088451
 30
0.0
 40
0.00597
100
AcDbArc
 50
270.0
 51
345.963757
  0
LINE
  5
13F
100
AcDbEntity
  8
OBJ
  6
CONTINUOUS
 62
     7
100
AcDbLine
 10
3.352713
 20
5.087003
 30
0.0
 11
3.361534
 21
5.122287
 31
0.0
  0
ARC
  5
140
100
AcDbEntity
  8
OBJ
  6
CONTINUOUS
 62
     7
100
AcDbCircle
 10
3.344774
 20
5.067556
 30
0.0
 40
0.002985
100
AcDbArc
 50
345.963757
 51
90.0
  0
ARC
  5
141
100
AcDbEntity
  8
OBJ
  6
CONTINUOUS
 62
     7
100
AcDbCircle
 10
3.358638
 20
5.123011
 30
0.0
 40
0.002985
100
AcDbArc
 50
345.963757
 51
90.0
  0
ARC
  5
142
100
AcDbEntity
  8
OBJ
  6
CONTINUOUS
 62
     7
100
AcDbCircle
 10
3.25833
 20
5.123011
 30
0.0
 40
0.002985
100
AcDbArc
 50
345.963757
 51
90.0
  0
LINE
  5
143
100
AcDbEntity
  8
OBJ
  6
CONTINUOUS
 62
     7
100
AcDbLine
 10
3.261226
 20
5.122287
 30
0.0
 11
3.251839
 21
5.084742
 31
0.0
  0
ARC
  5
144
100
AcDbEntity
  8
OBJ
  6
CONTINUOUS
 62
     7
100
AcDbCircle
 10
3.248944
 20
5.085466
 30
0.0
 40
0.002985
100
AcDbArc
 50
270.0
 51
345.963757
  0
ARC
  5
145
100
AcDbEntity
  8
OBJ
  6
CONTINUOUS
 62
     7
100
AcDbCircle
 10
3.253851
 20
5.079496
 30
0.0
 40
0.008955
100
AcDbArc
 50
270.0
 51
345.963757
  0
ARC
  5
146
100
AcDbEntity
  8
OBJ
  6
CONTINUOUS
 62
     7
100
AcDbCircle
 10
3.297896
 20
5.076511
 30
0.0
 40
0.00597
100
AcDbArc
 50
90.0
 51
165.963757
  0
ARC
  5
147
100
AcDbEntity
  8
OBJ
  6
CONTINUOUS
 62
     7
100
AcDbCircle
 10
3.305134
 20
5.067556
 30
0.0
 40
0.002985
100
AcDbArc
 50
90.0
 51
165.963757
  0
ARC
  5
148
100
AcDbEntity
  8
OBJ
  6
CONTINUOUS
 62
     7
100
AcDbCircle
 10
3.319093
 20
5.123011
 30
0.0
 40
0.002985
100
AcDbArc
 50
90.0
 51
165.963757
  0
LINE
  5
149
100
AcDbEntity
  8
OBJ
  6
CONTINUOUS
 62
     7
100
AcDbLine
 10
3.314413
 20
5.116597
 30
0.0
 11
3.316197
 21
5.123735
 31
0.0
  0
ARC
  5
14A
100
AcDbEntity
  8
OBJ
  6
CONTINUOUS
 62
     7
100
AcDbCircle
 10
3.305021
 20
5.117321
 30
0.0
 40
0.002985
100
AcDbArc
 50
165.963757
 51
270.0
  0
LINE
  5
14B
100
AcDbEntity
  8
OBJ
  6
CONTINUOUS
 62
     7
100
AcDbLine
 10
3.311517
 20
5.114335
 30
0.0
 11
3.305021
 21
5.114335
 31
0.0
  0
LINE
  5
14C
100
AcDbEntity
  8
OBJ
  6
CONTINUOUS
 62
     7
100
AcDbLine
 10
3.275897
 20
5.130757
 30
0.0
 11
3.262539
 21
5.077324
 31
0.0
  0
ARC
  5
14D
100
AcDbEntity
  8
OBJ
  6
CONTINUOUS
 62
     7
100
AcDbCircle
 10
3.311517
 20
5.117321
 30
0.0
 40
0.002985
100
AcDbArc
 50
270.0
 51
345.963757
  0
LINE
  5
14E
100
AcDbEntity
  8
OBJ
  6
CONTINUOUS
 62
     7
100
AcDbLine
 10
3.297896
 20
5.082481
 30
0.0
 11
3.346921
 21
5.082481
 31
0.0
  0
LINE
  5
14F
100
AcDbEntity
  8
OBJ
  6
CONTINUOUS
 62
     7
100
AcDbLine
 10
3.305134
 20
5.070541
 30
0.0
 11
3.344774
 21
5.070541
 31
0.0
  0
LINE
  5
150
100
AcDbEntity
  8
OBJ
  6
CONTINUOUS
 62
     7
100
AcDbLine
 10
3.358638
 20
5.125996
 30
0.0
 11
3.319093
 21
5.125996
 31
0.0
  0
ARC
  5
151
100
AcDbEntity
  8
OBJ
100
AcDbCircle
 10
3.37969
 20
5.017258
 30
0.0
 40
0.002985
100
AcDbArc
 50
270.0
 51
345.963757
  0
LINE
  5
152
100
AcDbEntity
  8
OBJ
100
AcDbLine
 10
3.376888
 20
5.014273
 30
0.0
 11
3.37969
 21
5.014273
 31
0.0
  0
ARC
  5
153
100
AcDbEntity
  8
OBJ
100
AcDbCircle
 10
3.376888
 20
5.017258
 30
0.0
 40
0.002985
100
AcDbArc
 50
165.963757
 51
270.0
  0
ARC
  5
154
100
AcDbEntity
  8
OBJ
  6
CONTINUOUS
 62
     7
100
AcDbCircle
 10
3.335191
 20
5.029222
 30
0.0
 40
0.002985
100
AcDbArc
 50
270.0
 51
345.963757
  0
ARC
  5
155
100
AcDbEntity
  8
OBJ
  6
CONTINUOUS
 62
     7
100
AcDbCircle
 10
3.340092
 20
5.023229
 30
0.0
 40
0.008955
100
AcDbArc
 50
270.0
 51
345.963757
  0
ARC
  5
156
100
AcDbEntity
  8
OBJ
  6
CONTINUOUS
 62
     7
100
AcDbCircle
 10
3.234663
 20
5.028725
 30
0.0
 40
0.002985
100
AcDbArc
 50
270.0
 51
345.963757
  0
LINE
  5
157
100
AcDbEntity
  8
OBJ
  6
CONTINUOUS
 62
     7
100
AcDbLine
 10
3.240055
 20
5.037987
 30
0.0
 11
3.237559
 21
5.028001
 31
0.0
  0
LINE
  5
158
100
AcDbEntity
  8
OBJ
  6
CONTINUOUS
 62
     7
100
AcDbLine
 10
3.242856
 20
5.040248
 30
0.0
 11
3.24637
 21
5.040248
 31
0.0
  0
ARC
  5
159
100
AcDbEntity
  8
OBJ
  6
CONTINUOUS
 62
     7
100
AcDbCircle
 10
3.242951
 20
5.037263
 30
0.0
 40
0.002985
100
AcDbArc
 50
90.0
 51
165.963757
  0
ARC
  5
15A
100
AcDbEntity
  8
OBJ
  6
CONTINUOUS
 62
     7
100
AcDbCircle
 10
3.242115
 20
5.020244
 30
0.0
 40
0.00597
100
AcDbArc
 50
270.0
 51
345.963757
  0
LINE
  5
15B
100
AcDbEntity
  8
OBJ
  6
CONTINUOUS
 62
     7
100
AcDbLine
 10
3.252342
 20
5.036539
 30
0.0
 11
3.247907
 21
5.018796
 31
0.0
  0
LINE
  5
15C
100
AcDbEntity
  8
OBJ
  6
CONTINUOUS
 62
     7
100
AcDbLine
 10
3.242951
 20
5.040248
 30
0.0
 11
3.249447
 21
5.040248
 31
0.0
  0
ARC
  5
15D
100
AcDbEntity
  8
OBJ
  6
CONTINUOUS
 62
     7
100
AcDbCircle
 10
3.249447
 20
5.037263
 30
0.0
 40
0.002985
100
AcDbArc
 50
345.963757
 51
90.0
  0
ARC
  5
15E
100
AcDbEntity
  8
OBJ
  6
CONTINUOUS
 62
     7
100
AcDbCircle
 10
3.295551
 20
5.029222
 30
0.0
 40
0.002985
100
AcDbArc
 50
165.963757
 51
270.0
  0
ARC
  5
15F
100
AcDbEntity
  8
OBJ
  6
CONTINUOUS
 62
     7
100
AcDbCircle
 10
3.287652
 20
5.023229
 30
0.0
 40
0.008955
100
AcDbArc
 50
165.963757
 51
270.0
  0
LINE
  5
160
100
AcDbEntity
  8
OBJ
  6
CONTINUOUS
 62
     7
100
AcDbLine
 10
3.335191
 20
5.026237
 30
0.0
 11
3.295551
 21
5.026237
 31
0.0
  0
LINE
  5
161
100
AcDbEntity
  8
OBJ
  6
CONTINUOUS
 62
     7
100
AcDbLine
 10
3.287652
 20
5.014273
 30
0.0
 11
3.340092
 21
5.014273
 31
0.0
  0
LINE
  5
162
100
AcDbEntity
  8
OBJ
  6
CONTINUOUS
 62
     7
100
AcDbLine
 10
3.382585
 20
5.016534
 30
0.0
 11
3.407386
 21
5.115737
 31
0.0
  0
LINE
  5
163
100
AcDbEntity
  8
OBJ
  6
CONTINUOUS
 62
     7
100
AcDbLine
 10
3.34878
 20
5.021057
 30
0.0
 11
3.376205
 21
5.130757
 31
0.0
  0
LINE
  5
164
100
AcDbEntity
  8
OBJ
  6
CONTINUOUS
 62
     7
100
AcDbLine
 10
3.278964
 20
5.025401
 30
0.0
 11
3.292104
 21
5.077959
 31
0.0
  0
LINE
  5
165
100
AcDbEntity
  8
OBJ
  6
CONTINUOUS
 62
     7
100
AcDbLine
 10
3.338086
 20
5.028498
 30
0.0
 11
3.34767
 21
5.066832
 31
0.0
  0
LINE
  5
166
100
AcDbEntity
  8
OBJ
  6
CONTINUOUS
 62
     7
100
AcDbLine
 10
3.292655
 20
5.029946
 30
0.0
 11
3.302238
 21
5.06828
 31
0.0
  0
LINE
  5
167
100
AcDbEntity
  8
OBJ
  6
CONTINUOUS
 62
     7
100
AcDbLine
 10
3.409346
 20
5.117848
 30
0.0
 11
3.416731
 21
5.120288
 31
0.0
  0
ARC
  5
168
100
AcDbEntity
  8
OBJ
  6
CONTINUOUS
 62
     7
100
AcDbCircle
 10
3.162237
 20
5.123011
 30
0.0
 40
0.002985
100
AcDbArc
 50
345.963757
 51
90.0
  0
ARC
  5
169
100
AcDbEntity
  8
OBJ
  6
CONTINUOUS
 62
     7
100
AcDbCircle
 10
3.21869
 20
5.123011
 30
0.0
 40
0.002985
100
AcDbArc
 50
90.0
 51
165.963757
  0
LINE
  5
16A
100
AcDbEntity
  8
OBJ
  6
CONTINUOUS
 62
     7
100
AcDbLine
 10
3.215794
 20
5.123735
 30
0.0
 11
3.206408
 21
5.08619
 31
0.0
  0
ARC
  5
16B
100
AcDbEntity
  8
OBJ
  6
CONTINUOUS
 62
     7
100
AcDbCircle
 10
3.209304
 20
5.085466
 30
0.0
 40
0.002985
100
AcDbArc
 50
165.963757
 51
270.0
  0
ARC
  5
16C
100
AcDbEntity
  8
OBJ
  6
CONTINUOUS
 62
     7
100
AcDbCircle
 10
3.204826
 20
5.067556
 30
0.0
 40
0.002985
100
AcDbArc
 50
90.0
 51
165.963757
  0
ARC
  5
16D
100
AcDbEntity
  8
OBJ
  6
CONTINUOUS
 62
     7
100
AcDbCircle
 10
3.195118
 20
5.028725
 30
0.0
 40
0.002985
100
AcDbArc
 50
165.963757
 51
270.0
  0
ARC
  5
16E
100
AcDbEntity
  8
OBJ
  6
CONTINUOUS
 62
     7
100
AcDbCircle
 10
3.187344
 20
5.023229
 30
0.0
 40
0.008955
100
AcDbArc
 50
165.963757
 51
270.0
  0
LINE
  5
16F
100
AcDbEntity
  8
OBJ
  6
CONTINUOUS
 62
     7
100
AcDbLine
 10
3.20193
 20
5.06828
 30
0.0
 11
3.192222
 21
5.029449
 31
0.0
  0
LINE
  5
170
100
AcDbEntity
  8
OBJ
  6
CONTINUOUS
 62
     7
100
AcDbLine
 10
3.25833
 20
5.125996
 30
0.0
 11
3.21869
 21
5.125996
 31
0.0
  0
LINE
  5
171
100
AcDbEntity
  8
OBJ
  6
CONTINUOUS
 62
     7
100
AcDbLine
 10
3.187344
 20
5.014273
 30
0.0
 11
3.242115
 21
5.014273
 31
0.0
  0
LINE
  5
172
100
AcDbEntity
  8
OBJ
  6
CONTINUOUS
 62
     7
100
AcDbLine
 10
3.209304
 20
5.082481
 30
0.0
 11
3.248944
 21
5.082481
 31
0.0
  0
LINE
  5
173
100
AcDbEntity
  8
OBJ
  6
CONTINUOUS
 62
     7
100
AcDbLine
 10
3.204826
 20
5.070541
 30
0.0
 11
3.253851
 21
5.070541
 31
0.0
  0
LINE
  5
174
100
AcDbEntity
  8
OBJ
  6
CONTINUOUS
 62
     7
100
AcDbLine
 10
3.195118
 20
5.02574
 30
0.0
 11
3.234663
 21
5.02574
 31
0.0
  0
LINE
  5
175
100
AcDbEntity
  8
OBJ
  6
CONTINUOUS
 62
     7
100
AcDbLine
 10
3.108268
 20
5.217016
 30
0.0
 11
3.184897
 21
5.217016
 31
0.0
  0
LINE
  5
176
100
AcDbEntity
  8
OBJ
  6
CONTINUOUS
 62
     7
100
AcDbLine
 10
3.10342
 20
5.229195
 30
0.0
 11
3.192945
 21
5.229195
 31
0.0
  0
LINE
  5
177
100
AcDbEntity
  8
OBJ
  6
CONTINUOUS
 62
     7
100
AcDbLine
 10
3.174013
 20
5.138175
 30
0.0
 11
3.129812
 21
5.138175
 31
0.0
  0
ARC
  5
178
100
AcDbEntity
  8
OBJ
  6
CONTINUOUS
 62
     7
100
AcDbCircle
 10
2.847679
 20
5.269885
 30
0.0
 40
0.004664
100
AcDbArc
 50
90.075788
 51
183.617469
  0
LINE
  5
179
100
AcDbEntity
  8
OBJ
  6
CONTINUOUS
 62
     7
100
AcDbLine
 10
2.868201
 20
5.214881
 30
0.0
 11
2.847205
 21
5.214881
 31
0.0
  0
LINE
  5
17A
100
AcDbEntity
  8
OBJ
  6
CONTINUOUS
 62
     7
100
AcDbLine
 10
2.817118
 20
5.178516
 30
0.0
 11
2.867767
 21
5.178516
 31
0.0
  0
LINE
  5
17B
100
AcDbEntity
  8
OBJ
  6
CONTINUOUS
 62
     7
100
AcDbLine
 10
2.773995
 20
5.264633
 30
0.0
 11
2.773995
 21
5.264633
 31
0.0
  0
LINE
  5
17C
100
AcDbEntity
  8
OBJ
  6
CONTINUOUS
 62
     7
100
AcDbLine
 10
2.838369
 20
5.264633
 30
0.0
 11
2.773995
 21
5.264633
 31
0.0
  0
ARC
  5
17D
100
AcDbEntity
  8
OBJ
  6
CONTINUOUS
 62
     7
100
AcDbCircle
 10
2.847205
 20
5.219546
 30
0.0
 40
0.004664
100
AcDbArc
 50
180.0
 51
270.0
  0
LINE
  5
17E
100
AcDbEntity
  8
OBJ
  6
CONTINUOUS
 62
     7
100
AcDbLine
 10
2.842541
 20
5.219546
 30
0.0
 11
2.842541
 21
5.235093
 31
0.0
  0
LINE
  5
17F
100
AcDbEntity
  8
OBJ
  6
CONTINUOUS
 62
     7
100
AcDbLine
 10
2.837877
 20
5.239757
 30
0.0
 11
2.78284
 21
5.239757
 31
0.0
  0
ARC
  5
180
100
AcDbEntity
  8
OBJ
  6
CONTINUOUS
 62
     7
100
AcDbCircle
 10
2.837877
 20
5.235093
 30
0.0
 40
0.004664
100
AcDbArc
 50
0.0
 51
90.0
  0
ARC
  5
181
100
AcDbEntity
  8
OBJ
  6
CONTINUOUS
 62
     7
100
AcDbCircle
 10
2.817118
 20
5.173851
 30
0.0
 40
0.004664
100
AcDbArc
 50
90.0
 51
180.0
  0
ARC
  5
182
100
AcDbEntity
  8
OBJ
  6
CONTINUOUS
 62
     7
100
AcDbCircle
 10
2.838369
 20
5.269297
 30
0.0
 40
0.004664
100
AcDbArc
 50
270.0
 51
3.617469
  0
ARC
  5
183
100
AcDbEntity
  8
OBJ
  6
CONTINUOUS
 62
     7
100
AcDbCircle
 10
2.718364
 20
5.221884
 30
0.0
 40
0.004664
100
AcDbArc
 50
86.169339
 51
179.983755
  0
ARC
  5
184
100
AcDbEntity
  8
OBJ
  6
CONTINUOUS
 62
     7
100
AcDbCircle
 10
2.718987
 20
5.231191
 30
0.0
 40
0.004664
100
AcDbArc
 50
266.169339
 51
0.0
  0
LINE
  5
185
100
AcDbEntity
  8
OBJ
  6
CONTINUOUS
 62
     7
100
AcDbLine
 10
2.723651
 20
5.269721
 30
0.0
 11
2.723651
 21
5.231191
 31
0.0
  0
ARC
  5
186
100
AcDbEntity
  8
OBJ
  6
CONTINUOUS
 62
     7
100
AcDbCircle
 10
2.718987
 20
5.269721
 30
0.0
 40
0.004664
100
AcDbArc
 50
0.0
 51
90.0
  0
LINE
  5
187
100
AcDbEntity
  8
OBJ
  6
CONTINUOUS
 62
     7
100
AcDbLine
 10
2.718987
 20
5.274385
 30
0.0
 11
2.688515
 21
5.274385
 31
0.0
  0
ARC
  5
188
100
AcDbEntity
  8
OBJ
  6
CONTINUOUS
 62
     7
100
AcDbCircle
 10
2.688515
 20
5.269721
 30
0.0
 40
0.004664
100
AcDbArc
 50
90.0
 51
180.0
  0
LINE
  5
189
100
AcDbEntity
  8
OBJ
  6
CONTINUOUS
 62
     7
100
AcDbLine
 10
2.68385
 20
5.269721
 30
0.0
 11
2.68385
 21
5.231352
 31
0.0
  0
ARC
  5
18A
100
AcDbEntity
  8
OBJ
  6
CONTINUOUS
 62
     7
100
AcDbCircle
 10
2.688515
 20
5.231352
 30
0.0
 40
0.004664
100
AcDbArc
 50
180.0
 51
273.579525
  0
ARC
  5
18B
100
AcDbEntity
  8
OBJ
  6
CONTINUOUS
 62
     7
100
AcDbCircle
 10
2.689097
 20
5.222041
 30
0.0
 40
0.004664
100
AcDbArc
 50
0.0
 51
93.579525
  0
ARC
  5
18C
100
AcDbEntity
  8
OBJ
  6
CONTINUOUS
 62
     7
100
AcDbCircle
 10
2.773995
 20
5.244732
 30
0.0
 40
0.0199
100
AcDbArc
 50
90.0
 51
180.0163
  0
ARC
  5
18D
100
AcDbEntity
  8
OBJ
  6
CONTINUOUS
 62
     7
100
AcDbCircle
 10
2.78284
 20
5.229807
 30
0.0
 40
0.00995
100
AcDbArc
 50
90.0
 51
180.0
  0
LINE
  5
18E
100
AcDbEntity
  8
OBJ
  6
CONTINUOUS
 62
     7
100
AcDbLine
 10
2.598962
 20
5.274385
 30
0.0
 11
2.624741
 21
5.274385
 31
0.0
  0
ARC
  5
18F
100
AcDbEntity
  8
OBJ
  6
CONTINUOUS
 62
     7
100
AcDbCircle
 10
2.598962
 20
5.269721
 30
0.0
 40
0.004664
100
AcDbArc
 50
90.0
 51
180.0
  0
LINE
  5
190
100
AcDbEntity
  8
OBJ
  6
CONTINUOUS
 62
     7
100
AcDbLine
 10
2.594298
 20
5.231075
 30
0.0
 11
2.594298
 21
5.269721
 31
0.0
  0
ARC
  5
191
100
AcDbEntity
  8
OBJ
  6
CONTINUOUS
 62
     7
100
AcDbCircle
 10
2.598962
 20
5.231075
 30
0.0
 40
0.004664
100
AcDbArc
 50
180.0
 51
270.0
  0
LINE
  5
192
100
AcDbEntity
  8
OBJ
  6
CONTINUOUS
 62
     7
100
AcDbLine
 10
2.599584
 20
5.226411
 30
0.0
 11
2.598962
 21
5.226411
 31
0.0
  0
ARC
  5
193
100
AcDbEntity
  8
OBJ
  6
CONTINUOUS
 62
     7
100
AcDbCircle
 10
2.599584
 20
5.221747
 30
0.0
 40
0.004664
100
AcDbArc
 50
0.0
 51
90.0
  0
ARC
  5
194
100
AcDbEntity
  8
OBJ
  6
CONTINUOUS
 62
     7
100
AcDbCircle
 10
2.628813
 20
5.200352
 30
0.0
 40
0.004664
100
AcDbArc
 50
27.819998
 51
180.0
  0
LINE
  5
195
100
AcDbEntity
  8
OBJ
  6
CONTINUOUS
 62
     7
100
AcDbLine
 10
2.540835
 20
5.272885
 30
0.0
 11
2.547745
 21
5.273517
 31
0.0
  0
LINE
  5
196
100
AcDbEntity
  8
OBJ
  6
CONTINUOUS
 62
     7
100
AcDbLine
 10
2.547745
 20
5.273517
 30
0.0
 11
2.549608
 21
5.273686
 31
0.0
  0
ARC
  5
197
100
AcDbEntity
  8
OBJ
  6
CONTINUOUS
 62
     7
100
AcDbCircle
 10
2.55003
 20
5.269041
 30
0.0
 40
0.004664
100
AcDbArc
 50
0.0
 51
95.194429
  0
ARC
  5
198
100
AcDbEntity
  8
OBJ
  6
CONTINUOUS
 62
     7
100
AcDbCircle
 10
2.817118
 20
5.153329
 30
0.0
 40
0.004664
100
AcDbArc
 50
180.0
 51
270.0
  0
LINE
  5
199
100
AcDbEntity
  8
OBJ
  6
CONTINUOUS
 62
     7
100
AcDbLine
 10
2.83764
 20
5.148665
 30
0.0
 11
2.817118
 21
5.148665
 31
0.0
  0
ARC
  5
19A
100
AcDbEntity
  8
OBJ
  6
CONTINUOUS
 62
     7
100
AcDbCircle
 10
2.83764
 20
5.144001
 30
0.0
 40
0.004664
100
AcDbArc
 50
0.0
 51
90.0
  0
ARC
  5
19B
100
AcDbEntity
  8
OBJ
  6
CONTINUOUS
 62
     7
100
AcDbCircle
 10
2.689097
 20
5.148119
 30
0.0
 40
0.004664
100
AcDbArc
 50
205.121135
 51
0.0
  0
LINE
  5
19C
100
AcDbEntity
  8
OBJ
  6
CONTINUOUS
 62
     7
100
AcDbLine
 10
2.624741
 20
5.274385
 30
0.0
 11
2.684874
 21
5.146139
 31
0.0
  0
LINE
  5
19D
100
AcDbEntity
  8
OBJ
  6
CONTINUOUS
 62
     7
100
AcDbLine
 10
2.693761
 20
5.222041
 30
0.0
 11
2.693761
 21
5.148119
 31
0.0
  0
LINE
  5
19E
100
AcDbEntity
  8
OBJ
  6
CONTINUOUS
 62
     7
100
AcDbLine
 10
2.812453
 20
5.153329
 30
0.0
 11
2.812453
 21
5.173851
 31
0.0
  0
ARC
  5
19F
100
AcDbEntity
  8
OBJ
  6
CONTINUOUS
 62
     7
100
AcDbCircle
 10
3.084703
 20
5.310277
 30
0.0
 40
0.0199
100
AcDbArc
 50
90.0
 51
165.9477
  0
LINE
  5
1A0
100
AcDbEntity
  8
OBJ
  6
CONTINUOUS
 62
     7
100
AcDbLine
 10
3.084703
 20
5.330178
 30
0.0
 11
3.125872
 21
5.330178
 31
0.0
  0
ARC
  5
1A1
100
AcDbEntity
  8
OBJ
  6
CONTINUOUS
 62
     7
100
AcDbCircle
 10
3.125872
 20
5.334842
 30
0.0
 40
0.004664
100
AcDbArc
 50
270.0
 51
335.75335
  0
LINE
  5
1A2
100
AcDbEntity
  8
OBJ
  6
CONTINUOUS
 62
     7
100
AcDbLine
 10
3.130125
 20
5.332927
 30
0.0
 11
3.134887
 21
5.343499
 31
0.0
  0
ARC
  5
1A3
100
AcDbEntity
  8
OBJ
  6
CONTINUOUS
 62
     7
100
AcDbCircle
 10
3.130634
 20
5.345414
 30
0.0
 40
0.004664
100
AcDbArc
 50
335.75335
 51
90.0
  0
ARC
  5
1A4
100
AcDbEntity
  8
OBJ
  6
CONTINUOUS
 62
     7
100
AcDbCircle
 10
3.108268
 20
5.214031
 30
0.0
 40
0.002985
100
AcDbArc
 50
90.0
 51
165.963757
  0
ARC
  5
1A5
100
AcDbEntity
  8
OBJ
  6
CONTINUOUS
 62
     7
100
AcDbCircle
 10
3.10342
 20
5.22024
 30
0.0
 40
0.008955
100
AcDbArc
 50
90.0
 51
165.963757
  0
ARC
  5
1A6
100
AcDbEntity
  8
OBJ
  6
CONTINUOUS
 62
     7
100
AcDbCircle
 10
2.995664
 20
5.310277
 30
0.0
 40
0.0199
100
AcDbArc
 50
345.2882
 51
90.0
  0
ARC
  5
1A7
100
AcDbEntity
  8
OBJ
  6
CONTINUOUS
 62
     7
100
AcDbCircle
 10
2.973764
 20
5.345414
 30
0.0
 40
0.004664
100
AcDbArc
 50
90.0
 51
155.75335
  0
LINE
  5
1A8
100
AcDbEntity
  8
OBJ
  6
CONTINUOUS
 62
     7
100
AcDbLine
 10
2.96475
 20
5.336758
 30
0.0
 11
2.969511
 21
5.34733
 31
0.0
  0
LINE
  5
1A9
100
AcDbEntity
  8
OBJ
  6
CONTINUOUS
 62
     7
100
AcDbLine
 10
2.995664
 20
5.330178
 30
0.0
 11
2.969002
 21
5.330178
 31
0.0
  0
ARC
  5
1AA
100
AcDbEntity
  8
OBJ
  6
CONTINUOUS
 62
     7
100
AcDbCircle
 10
2.969002
 20
5.334842
 30
0.0
 40
0.004664
100
AcDbArc
 50
155.75335
 51
270.0
  0
ARC
  5
1AB
100
AcDbEntity
  8
OBJ
100
AcDbCircle
 10
2.926839
 20
5.288872
 30
0.0
 40
0.004664
100
AcDbArc
 50
90.0
 51
135.0
  0
LINE
  5
1AC
100
AcDbEntity
  8
OBJ
  6
CONTINUOUS
 62
     7
100
AcDbLine
 10
2.926839
 20
5.293536
 30
0.0
 11
2.933419
 21
5.293536
 31
0.0
  0
ARC
  5
1AD
100
AcDbEntity
  8
OBJ
100
AcDbCircle
 10
2.933419
 20
5.288872
 30
0.0
 40
0.004664
100
AcDbArc
 50
45.0
 51
90.0
  0
ARC
  5
1AE
100
AcDbEntity
  8
OBJ
  6
CONTINUOUS
 62
     7
100
AcDbCircle
 10
2.985681
 20
5.175678
 30
0.0
 40
0.004664
100
AcDbArc
 50
165.279672
 51
270.0
  0
LINE
  5
1AF
100
AcDbEntity
  8
OBJ
  6
CONTINUOUS
 62
     7
100
AcDbLine
 10
2.985681
 20
5.171013
 30
0.0
 11
3.025744
 21
5.171013
 31
0.0
  0
ARC
  5
1B0
100
AcDbEntity
  8
OBJ
  6
CONTINUOUS
 62
     7
100
AcDbCircle
 10
3.025744
 20
5.175678
 30
0.0
 40
0.004664
100
AcDbArc
 50
270.0
 51
345.952673
  0
ARC
  5
1B1
100
AcDbEntity
  8
OBJ
100
AcDbCircle
 10
2.954555
 20
5.267735
 30
0.0
 40
0.004664
100
AcDbArc
 50
0.0
 51
45.0
  0
LINE
  5
1B2
100
AcDbEntity
  8
OBJ
100
AcDbLine
 10
2.95922
 20
5.267735
 30
0.0
 11
2.95922
 21
5.25982
 31
0.0
  0
ARC
  5
1B3
100
AcDbEntity
  8
OBJ
100
AcDbCircle
 10
2.954555
 20
5.230612
 30
0.0
 40
0.004664
100
AcDbArc
 50
0.0
 51
67.5
  0
LINE
  5
1B4
100
AcDbEntity
  8
OBJ
100
AcDbLine
 10
2.95922
 20
5.224554
 30
0.0
 11
2.95922
 21
5.230612
 31
0.0
  0
LINE
  5
1B5
100
AcDbEntity
  8
OBJ
100
AcDbLine
 10
2.95922
 20
5.19924
 30
0.0
 11
2.95922
 21
5.193643
 31
0.0
  0
ARC
  5
1B6
100
AcDbEntity
  8
OBJ
  6
CONTINUOUS
 62
     7
100
AcDbCircle
 10
2.868201
 20
5.269913
 30
0.0
 40
0.004664
100
AcDbArc
 50
0.0
 51
90.075788
  0
LINE
  5
1B7
100
AcDbEntity
  8
OBJ
  6
CONTINUOUS
 62
     7
100
AcDbLine
 10
2.872866
 20
5.269913
 30
0.0
 11
2.872866
 21
5.219546
 31
0.0
  0
ARC
  5
1B8
100
AcDbEntity
  8
OBJ
  6
CONTINUOUS
 62
     7
100
AcDbCircle
 10
2.868201
 20
5.219546
 30
0.0
 40
0.004664
100
AcDbArc
 50
270.0
 51
0.0
  0
ARC
  5
1B9
100
AcDbEntity
  8
OBJ
  6
CONTINUOUS
 62
     7
100
AcDbCircle
 10
2.867767
 20
5.173851
 30
0.0
 40
0.004664
100
AcDbArc
 50
0.0
 51
90.0
  0
ARC
  5
1BA
100
AcDbEntity
  8
OBJ
100
AcDbCircle
 10
2.909671
 20
5.271703
 30
0.0
 40
0.004664
100
AcDbArc
 50
135.0
 51
180.0
  0
ARC
  5
1BB
100
AcDbEntity
  8
OBJ
100
AcDbCircle
 10
2.92926
 20
5.265326
 30
0.0
 40
0.009328
100
AcDbArc
 50
45.0
 51
180.0
  0
LINE
  5
1BC
100
AcDbEntity
  8
OBJ
100
AcDbLine
 10
2.951257
 20
5.256522
 30
0.0
 11
2.935856
 21
5.271923
 31
0.0
  0
LINE
  5
1BD
100
AcDbEntity
  8
OBJ
  6
CONTINUOUS
 62
     7
100
AcDbLine
 10
2.919932
 20
5.253118
 30
0.0
 11
2.919932
 21
5.265326
 31
0.0
  0
ARC
  5
1BE
100
AcDbEntity
  8
OBJ
100
AcDbCircle
 10
2.924596
 20
5.253118
 30
0.0
 40
0.004664
100
AcDbArc
 50
180.0
 51
247.5
  0
LINE
  5
1BF
100
AcDbEntity
  8
OBJ
100
AcDbLine
 10
2.926381
 20
5.231175
 30
0.0
 11
2.95277
 21
5.220245
 31
0.0
  0
ARC
  5
1C0
100
AcDbEntity
  8
OBJ
100
AcDbCircle
 10
2.924596
 20
5.226866
 30
0.0
 40
0.004664
100
AcDbArc
 50
67.5
 51
180.0
  0
LINE
  5
1C1
100
AcDbEntity
  8
OBJ
  6
CONTINUOUS
 62
     7
100
AcDbLine
 10
2.919932
 20
5.208569
 30
0.0
 11
2.919932
 21
5.226866
 31
0.0
  0
ARC
  5
1C2
100
AcDbEntity
  8
OBJ
100
AcDbCircle
 10
2.924596
 20
5.208569
 30
0.0
 40
0.004664
100
AcDbArc
 50
180.0
 51
270.0
  0
LINE
  5
1C3
100
AcDbEntity
  8
OBJ
100
AcDbLine
 10
2.924596
 20
5.203905
 30
0.0
 11
2.954555
 21
5.203905
 31
0.0
  0
ARC
  5
1C4
100
AcDbEntity
  8
OBJ
100
AcDbCircle
 10
2.924596
 20
5.184315
 30
0.0
 40
0.004664
100
AcDbArc
 50
90.0
 51
180.0
  0
LINE
  5
1C5
100
AcDbEntity
  8
OBJ
100
AcDbLine
 10
2.924596
 20
5.188979
 30
0.0
 11
2.954555
 21
5.188979
 31
0.0
  0
ARC
  5
1C6
100
AcDbEntity
  8
OBJ
100
AcDbCircle
 10
2.954555
 20
5.25982
 30
0.0
 40
0.004664
100
AcDbArc
 50
225.0
 51
0.0
  0
LINE
  5
1C7
100
AcDbEntity
  8
OBJ
100
AcDbLine
 10
2.922811
 20
5.248809
 30
0.0
 11
2.95634
 21
5.234921
 31
0.0
  0
ARC
  5
1C8
100
AcDbEntity
  8
OBJ
100
AcDbCircle
 10
2.954555
 20
5.224554
 30
0.0
 40
0.004664
100
AcDbArc
 50
247.5
 51
0.0
  0
ARC
  5
1C9
100
AcDbEntity
  8
OBJ
100
AcDbCircle
 10
2.954555
 20
5.19924
 30
0.0
 40
0.004664
100
AcDbArc
 50
0.0
 51
90.0
  0
ARC
  5
1CA
100
AcDbEntity
  8
OBJ
100
AcDbCircle
 10
2.954555
 20
5.193643
 30
0.0
 40
0.004664
100
AcDbArc
 50
270.0
 51
360.0
  0
ARC
  5
1CB
100
AcDbEntity
  8
OBJ
100
AcDbCircle
 10
2.954555
 20
5.16833
 30
0.0
 40
0.004664
100
AcDbArc
 50
360.0
 51
112.5
  0
LINE
  5
1CC
100
AcDbEntity
  8
OBJ
100
AcDbLine
 10
2.906373
 20
5.275001
 30
0.0
 11
2.923541
 21
5.29217
 31
0.0
  0
LINE
  5
1CD
100
AcDbEntity
  8
OBJ
  6
CONTINUOUS
 62
     7
100
AcDbLine
 10
3.014894
 20
5.305223
 30
0.0
 11
2.98117
 21
5.176863
 31
0.0
  0
LINE
  5
1CE
100
AcDbEntity
  8
OBJ
100
AcDbLine
 10
2.957853
 20
5.271033
 30
0.0
 11
2.936717
 21
5.29217
 31
0.0
  0
LINE
  5
1CF
100
AcDbEntity
  8
OBJ
  6
CONTINUOUS
 62
     7
100
AcDbLine
 10
2.973764
 20
5.350078
 30
0.0
 11
3.130634
 21
5.350078
 31
0.0
  0
LINE
  5
1D0
100
AcDbEntity
  8
OBJ
  6
CONTINUOUS
 62
     7
100
AcDbLine
 10
3.030268
 20
5.174546
 30
0.0
 11
3.065435
 21
5.315095
 31
0.0
  0
ARC
  5
1D1
100
AcDbEntity
  8
OBJ
100
AcDbCircle
 10
3.051026
 20
5.130972
 30
0.0
 40
0.004664
100
AcDbArc
 50
45.0
 51
90.0
  0
ARC
  5
1D2
100
AcDbEntity
  8
OBJ
  6
CONTINUOUS
 62
     7
100
AcDbCircle
 10
3.129812
 20
5.13519
 30
0.0
 40
0.002985
100
AcDbArc
 50
90.0
 51
165.963757
  0
ARC
  5
1D3
100
AcDbEntity
  8
OBJ
  6
CONTINUOUS
 62
     7
100
AcDbCircle
 10
3.080481
 20
5.153099
 30
0.0
 40
0.002985
100
AcDbArc
 50
165.963757
 51
270.0
  0
LINE
  5
1D4
100
AcDbEntity
  8
OBJ
  6
CONTINUOUS
 62
     7
100
AcDbLine
 10
3.086881
 20
5.150114
 30
0.0
 11
3.080481
 21
5.150114
 31
0.0
  0
ARC
  5
1D5
100
AcDbEntity
  8
OBJ
  6
CONTINUOUS
 62
     7
100
AcDbCircle
 10
3.086881
 20
5.153099
 30
0.0
 40
0.002985
100
AcDbArc
 50
270.0
 51
345.963757
  0
ARC
  5
1D6
100
AcDbEntity
  8
OBJ
100
AcDbCircle
 10
2.954555
 20
5.162272
 30
0.0
 40
0.004664
100
AcDbArc
 50
292.5
 51
360.0
  0
LINE
  5
1D7
100
AcDbEntity
  8
OBJ
100
AcDbLine
 10
2.960915
 20
5.139424
 30
0.0
 11
2.964873
 21
5.135466
 31
0.0
  0
LINE
  5
1D8
100
AcDbEntity
  8
OBJ
100
AcDbLine
 10
2.983597
 20
5.135636
 30
0.0
 11
2.977538
 21
5.135636
 31
0.0
  0
LINE
  5
1D9
100
AcDbEntity
  8
OBJ
100
AcDbLine
 10
3.004544
 20
5.135636
 30
0.0
 11
2.998947
 21
5.135636
 31
0.0
  0
LINE
  5
1DA
100
AcDbEntity
  8
OBJ
100
AcDbLine
 10
3.019894
 20
5.135636
 30
0.0
 11
3.025952
 21
5.135636
 31
0.0
  0
ARC
  5
1DB
100
AcDbEntity
  8
OBJ
100
AcDbCircle
 10
2.924596
 20
5.166017
 30
0.0
 40
0.004664
100
AcDbArc
 50
180.0
 51
292.5
  0
ARC
  5
1DC
100
AcDbEntity
  8
OBJ
100
AcDbCircle
 10
2.924596
 20
5.139765
 30
0.0
 40
0.004664
100
AcDbArc
 50
112.5
 51
180.0
  0
LINE
  5
1DD
100
AcDbEntity
  8
OBJ
100
AcDbLine
 10
2.922811
 20
5.144075
 30
0.0
 11
2.95634
 21
5.157963
 31
0.0
  0
ARC
  5
1DE
100
AcDbEntity
  8
OBJ
100
AcDbCircle
 10
2.957617
 20
5.136126
 30
0.0
 40
0.004664
100
AcDbArc
 50
45.0
 51
135.0
  0
LINE
  5
1DF
100
AcDbEntity
  8
OBJ
100
AcDbLine
 10
3.043111
 20
5.135636
 30
0.0
 11
3.051026
 21
5.135636
 31
0.0
  0
LINE
  5
1E0
100
AcDbEntity
  8
OBJ
  6
CONTINUOUS
 62
     7
100
AcDbLine
 10
2.919932
 20
5.184315
 30
0.0
 11
2.919932
 21
5.166017
 31
0.0
  0
LINE
  5
1E1
100
AcDbEntity
  8
OBJ
100
AcDbLine
 10
2.926381
 20
5.161708
 30
0.0
 11
2.95277
 21
5.172639
 31
0.0
  0
LINE
  5
1E2
100
AcDbEntity
  8
OBJ
100
AcDbLine
 10
2.95922
 20
5.16833
 30
0.0
 11
2.95922
 21
5.162272
 31
0.0
  0
LINE
  5
1E3
100
AcDbEntity
  8
OBJ
  6
CONTINUOUS
 62
     7
100
AcDbLine
 10
3.105372
 20
5.214755
 30
0.0
 11
3.089777
 21
5.152375
 31
0.0
  0
LINE
  5
1E4
100
AcDbEntity
  8
OBJ
  6
CONTINUOUS
 62
     7
100
AcDbLine
 10
3.094732
 20
5.222411
 30
0.0
 11
3.077585
 21
5.153823
 31
0.0
  0
LINE
  5
1E5
100
AcDbEntity
  8
OBJ
  6
CONTINUOUS
 62
     7
100
AcDbLine
 10
2.847673
 20
5.27455
 30
0.0
 11
2.868195
 21
5.274577
 31
0.0
  0
ARC
  5
1E6
100
AcDbEntity
  8
OBJ
  6
CONTINUOUS
 62
     7
100
AcDbCircle
 10
3.442517
 20
5.134313
 30
0.0
 40
0.002985
100
AcDbArc
 50
11.949757
 51
106.214796
  0
ARC
  5
1E7
100
AcDbEntity
  8
OBJ
100
AcDbCircle
 10
3.406371
 20
5.13519
 30
0.0
 40
0.002985
100
AcDbArc
 50
90.0
 51
165.963757
  0
LINE
  5
1E8
100
AcDbEntity
  8
OBJ
100
AcDbLine
 10
3.406371
 20
5.138175
 30
0.0
 11
3.409172
 21
5.138175
 31
0.0
  0
ARC
  5
1E9
100
AcDbEntity
  8
OBJ
100
AcDbCircle
 10
3.409172
 20
5.13519
 30
0.0
 40
0.002985
100
AcDbArc
 50
345.963757
 51
90.0
  0
ARC
  5
1EA
100
AcDbEntity
  8
OBJ
  6
CONTINUOUS
 62
     7
100
AcDbCircle
 10
3.311819
 20
5.132205
 30
0.0
 40
0.00597
100
AcDbArc
 50
90.0
 51
165.963757
  0
LINE
  5
1EB
100
AcDbEntity
  8
OBJ
  6
CONTINUOUS
 62
     7
100
AcDbLine
 10
3.370413
 20
5.138175
 30
0.0
 11
3.311819
 21
5.138175
 31
0.0
  0
ARC
  5
1EC
100
AcDbEntity
  8
OBJ
  6
CONTINUOUS
 62
     7
100
AcDbCircle
 10
3.192945
 20
5.22024
 30
0.0
 40
0.008955
100
AcDbArc
 50
345.963757
 51
90.0
  0
ARC
  5
1ED
100
AcDbEntity
  8
OBJ
  6
CONTINUOUS
 62
     7
100
AcDbCircle
 10
3.192732
 20
5.194772
 30
0.0
 40
0.002985
100
AcDbArc
 50
270.0
 51
345.963757
  0
LINE
  5
1EE
100
AcDbEntity
  8
OBJ
  6
CONTINUOUS
 62
     7
100
AcDbLine
 10
3.195628
 20
5.194048
 30
0.0
 11
3.201632
 21
5.218068
 31
0.0
  0
LINE
  5
1EF
100
AcDbEntity
  8
OBJ
  6
CONTINUOUS
 62
     7
100
AcDbLine
 10
3.192732
 20
5.191787
 30
0.0
 11
3.186236
 21
5.191787
 31
0.0
  0
ARC
  5
1F0
100
AcDbEntity
  8
OBJ
  6
CONTINUOUS
 62
     7
100
AcDbCircle
 10
3.184897
 20
5.214031
 30
0.0
 40
0.002985
100
AcDbArc
 50
345.963757
 51
90.0
  0
LINE
  5
1F1
100
AcDbEntity
  8
OBJ
  6
CONTINUOUS
 62
     7
100
AcDbLine
 10
3.18334
 20
5.195496
 30
0.0
 11
3.187793
 21
5.213307
 31
0.0
  0
ARC
  5
1F2
100
AcDbEntity
  8
OBJ
  6
CONTINUOUS
 62
     7
100
AcDbCircle
 10
3.186236
 20
5.194772
 30
0.0
 40
0.002985
100
AcDbArc
 50
165.963757
 51
270.0
  0
ARC
  5
1F3
100
AcDbEntity
  8
OBJ
  6
CONTINUOUS
 62
     7
100
AcDbCircle
 10
3.211511
 20
5.132205
 30
0.0
 40
0.00597
100
AcDbArc
 50
90.0
 51
165.963757
  0
LINE
  5
1F4
100
AcDbEntity
  8
OBJ
  6
CONTINUOUS
 62
     7
100
AcDbLine
 10
3.270105
 20
5.138175
 30
0.0
 11
3.211511
 21
5.138175
 31
0.0
  0
ARC
  5
1F5
100
AcDbEntity
  8
OBJ
  6
CONTINUOUS
 62
     7
100
AcDbCircle
 10
2.84844
 20
4.979566
 30
0.0
 40
0.002985
100
AcDbArc
 50
90.0
 51
160.926627
  0
LINE
  5
1F6
100
AcDbEntity
  8
OBJ
  6
CONTINUOUS
 62
     7
100
AcDbLine
 10
3.134371
 20
4.962137
 30
0.0
 11
2.843445
 21
4.962137
 31
0.0
  0
ARC
  5
1F7
100
AcDbEntity
  8
OBJ
  6
CONTINUOUS
 62
     7
100
AcDbCircle
 10
2.843445
 20
4.965122
 30
0.0
 40
0.002985
100
AcDbArc
 50
160.926627
 51
270.0
  0
LINE
  5
1F8
100
AcDbEntity
  8
OBJ
  6
CONTINUOUS
 62
     7
100
AcDbLine
 10
2.840624
 20
4.966098
 30
0.0
 11
2.845618
 21
4.980541
 31
0.0
  0
ARC
  5
1F9
100
AcDbEntity
  8
OBJ
  6
CONTINUOUS
 62
     7
100
AcDbCircle
 10
3.141208
 20
4.987284
 30
0.0
 40
0.004664
100
AcDbArc
 50
341.542288
 51
90.0
  0
ARC
  5
1FA
100
AcDbEntity
  8
OBJ
  6
CONTINUOUS
 62
     7
100
AcDbCircle
 10
3.114471
 20
4.986662
 30
0.0
 40
0.004664
100
AcDbArc
 50
270.0
 51
341.542288
  0
LINE
  5
1FB
100
AcDbEntity
  8
OBJ
  6
CONTINUOUS
 62
     7
100
AcDbLine
 10
3.118895
 20
4.985186
 30
0.0
 11
3.120089
 21
4.988761
 31
0.0
  0
ARC
  5
1FC
100
AcDbEntity
  8
OBJ
  6
CONTINUOUS
 62
     7
100
AcDbCircle
 10
3.124513
 20
4.987284
 30
0.0
 40
0.004664
100
AcDbArc
 50
90.0
 51
161.542288
  0
ARC
  5
1FD
100
AcDbEntity
  8
OBJ
  6
CONTINUOUS
 62
     7
100
AcDbCircle
 10
3.134371
 20
4.966801
 30
0.0
 40
0.004664
100
AcDbArc
 50
270.0
 51
341.542288
  0
LINE
  5
1FE
100
AcDbEntity
  8
OBJ
  6
CONTINUOUS
 62
     7
100
AcDbLine
 10
3.124513
 20
4.991948
 30
0.0
 11
3.141208
 21
4.991948
 31
0.0
  0
LINE
  5
1FF
100
AcDbEntity
  8
OBJ
  6
CONTINUOUS
 62
     7
100
AcDbLine
 10
3.138796
 20
4.965325
 30
0.0
 11
3.145632
 21
4.985808
 31
0.0
  0
ARC
  5
200
100
AcDbEntity
  8
OBJ
  6
CONTINUOUS
 62
     7
100
AcDbCircle
 10
2.974551
 20
4.986662
 30
0.0
 40
0.004664
100
AcDbArc
 50
165.963757
 51
270.0
  0
LINE
  5
201
100
AcDbEntity
  8
OBJ
  6
CONTINUOUS
 62
     7
100
AcDbLine
 10
2.974551
 20
4.981998
 30
0.0
 11
3.114471
 21
4.981998
 31
0.0
  0
LINE
  5
202
100
AcDbEntity
  8
OBJ
  6
CONTINUOUS
 62
     7
100
AcDbLine
 10
2.84844
 20
4.982551
 30
0.0
 11
2.904691
 21
4.982551
 31
0.0
  0
TEXT
  5
203
100
AcDbEntity
  8
OBJ
100
AcDbText
 10
2.908414
 20
3.282527
 30
0.0
 40
0.125
  1
A
  7
ROMANS
 72
     1
 11
2.961985
 21
3.345027
 31
0.0
100
AcDbText
 73
     2
  0
LINE
  5
204
100
AcDbEntity
  8
CEN
100
AcDbLine
 10
2.961985
 20
3.443654
 30
0.0
 11
2.961985
 21
4.925058
 31
0.0
  0
TEXT
  5
205
100
AcDbEntity
  8
OBJ
100
AcDbText
 10
2.152975
 20
5.233513
 30
0.0
 40
0.125
  1
C
 50
270.0
  7
ROMANS
 72
     4
 11
2.215475
 21
5.171013
 31
0.0
100
AcDbText
  0
LINE
  5
206
100
AcDbEntity
  8
CEN
100
AcDbLine
 10
3.901059
 20
5.171013
 30
0.0
 11
3.140266
 21
5.171013
 31
0.0
  0
TEXT
  5
207
100
AcDbEntity
  8
OBJ
100
AcDbText
 10
4.074711
 20
5.105537
 30
0.0
 40
0.125
  1
B
 50
90.0
  7
ROMANS
 72
     1
 11
4.012211
 21
5.171013
 31
0.0
100
AcDbText
 73
     2
  0
LINE
  5
208
100
AcDbEntity
  8
CEN
100
AcDbLine
 10
2.413916
 20
5.171013
 30
0.0
 11
2.316399
 21
5.171013
 31
0.0
  0
LINE
  5
209
100
AcDbEntity
  8
CEN
100
AcDbLine
 10
2.961985
 20
5.399124
 30
0.0
 11
2.961985
 21
6.060706
 31
0.0
  0
INSERT
  5
20A
100
AcDbEntity
  8
BORDER
100
AcDbBlockReference
  2
C-SIZE
 10
0.0
 20
0.0
 30
0.0
 41
0.5
 42
0.5
 43
0.5
  0
LINE
  5
23C
100
AcDbEntity
  8
DIM
100
AcDbLine
 10
2.961985
 20
6.091956
 30
0.0
 11
2.961985
 21
6.282075
 31
0.0
  0
LINE
  5
23D
100
AcDbEntity
  8
DIM
100
AcDbLine
 10
2.305985
 20
4.806056
 30
0.0
 11
2.305985
 21
5.774794
 31
0.0
  0
LINE
  5
23E
100
AcDbEntity
  8
DIM
100
AcDbLine
 10
2.899485
 20
6.237075
 30
0.0
 11
2.368485
 21
6.237075
 31
0.0
  0
SOLID
  5
23F
100
AcDbEntity
  8
DIM
100
AcDbTrace
 10
2.899485
 20
6.247492
 30
0.0
 11
2.899485
 21
6.226658
 31
0.0
 12
2.961985
 22
6.237075
 32
0.0
 13
2.961985
 23
6.237075
 33
0.0
  0
SOLID
  5
240
100
AcDbEntity
  8
DIM
100
AcDbTrace
 10
2.368485
 20
6.247492
 30
0.0
 11
2.368485
 21
6.226658
 31
0.0
 12
2.305985
 22
6.237075
 32
0.0
 13
2.305985
 23
6.237075
 33
0.0
  0
TEXT
  5
241
100
AcDbEntity
  8
DIM
100
AcDbText
 10
2.483874
 20
6.268325
 30
0.0
 40
0.0625
  1
0.656
  7
ROMANS
 72
     4
 11
2.617802
 21
6.299575
 31
0.0
100
AcDbText
  0
LINE
  5
242
100
AcDbEntity
  8
DIM
100
AcDbLine
 10
2.961985
 20
6.268325
 30
0.0
 11
2.961985
 21
6.282075
 31
0.0
  0
LINE
  5
243
100
AcDbEntity
  8
DIM
100
AcDbLine
 10
3.617985
 20
4.832134
 30
0.0
 11
3.617985
 21
6.282075
 31
0.0
  0
LINE
  5
244
100
AcDbEntity
  8
DIM
100
AcDbLine
 10
3.024485
 20
6.237075
 30
0.0
 11
3.555485
 21
6.237075
 31
0.0
  0
SOLID
  5
245
100
AcDbEntity
  8
DIM
100
AcDbTrace
 10
3.024485
 20
6.247492
 30
0.0
 11
3.024485
 21
6.226658
 31
0.0
 12
2.961985
 22
6.237075
 32
0.0
 13
2.961985
 23
6.237075
 33
0.0
  0
SOLID
  5
246
100
AcDbEntity
  8
DIM
100
AcDbTrace
 10
3.555485
 20
6.247492
 30
0.0
 11
3.555485
 21
6.226658
 31
0.0
 12
3.617985
 22
6.237075
 32
0.0
 13
3.617985
 23
6.237075
 33
0.0
  0
TEXT
  5
247
100
AcDbEntity
  8
DIM
100
AcDbText
 10
3.143017
 20
6.268325
 30
0.0
 40
0.0625
  1
0.656
  7
ROMANS
 72
     4
 11
3.276946
 21
6.299575
 31
0.0
100
AcDbText
  0
LINE
  5
248
100
AcDbEntity
  8
DIM
100
AcDbLine
 10
2.961985
 20
6.268325
 30
0.0
 11
2.961985
 21
6.447741
 31
0.0
  0
LINE
  5
249
100
AcDbEntity
  8
DIM
100
AcDbLine
 10
4.346985
 20
5.972263
 30
0.0
 11
4.346985
 21
6.447741
 31
0.0
  0
LINE
  5
24A
100
AcDbEntity
  8
DIM
100
AcDbLine
 10
3.024485
 20
6.402741
 30
0.0
 11
4.284485
 21
6.402741
 31
0.0
  0
SOLID
  5
24B
100
AcDbEntity
  8
DIM
100
AcDbTrace
 10
3.024485
 20
6.413158
 30
0.0
 11
3.024485
 21
6.392325
 31
0.0
 12
2.961985
 22
6.402741
 32
0.0
 13
2.961985
 23
6.402741
 33
0.0
  0
SOLID
  5
24C
100
AcDbEntity
  8
DIM
100
AcDbTrace
 10
4.284485
 20
6.413158
 30
0.0
 11
4.284485
 21
6.392325
 31
0.0
 12
4.346985
 22
6.402741
 32
0.0
 13
4.346985
 23
6.402741
 33
0.0
  0
TEXT
  5
24D
100
AcDbEntity
  8
DIM
100
AcDbText
 10
3.492884
 20
6.433991
 30
0.0
 40
0.0625
  1
1.385
  7
ROMANS
 72
     4
 11
3.631277
 21
6.465241
 31
0.0
100
AcDbText
  0
LINE
  5
24E
100
AcDbEntity
  8
DIM
100
AcDbLine
 10
4.346985
 20
6.268325
 30
0.0
 11
4.346985
 21
6.282075
 31
0.0
  0
LINE
  5
24F
100
AcDbEntity
  8
DIM
100
AcDbLine
 10
4.094485
 20
6.237075
 30
0.0
 11
4.031985
 21
6.237075
 31
0.0
  0
LINE
  5
250
100
AcDbEntity
  8
DIM
100
AcDbLine
 10
4.409485
 20
6.237075
 30
0.0
 11
4.471985
 21
6.237075
 31
0.0
  0
SOLID
  5
251
100
AcDbEntity
  8
DIM
100
AcDbTrace
 10
4.094485
 20
6.247492
 30
0.0
 11
4.094485
 21
6.226658
 31
0.0
 12
4.156985
 22
6.237075
 32
0.0
 13
4.156985
 23
6.237075
 33
0.0
  0
SOLID
  5
252
100
AcDbEntity
  8
DIM
100
AcDbTrace
 10
4.409485
 20
6.247492
 30
0.0
 11
4.409485
 21
6.226658
 31
0.0
 12
4.346985
 22
6.237075
 32
0.0
 13
4.346985
 23
6.237075
 33
0.0
  0
TEXT
  5
253
100
AcDbEntity
  8
DIM
100
AcDbText
 10
4.495144
 20
6.208255
 30
0.0
 40
0.0625
  1
0.19
  7
ROMANS
 72
     4
 11
4.597822
 21
6.239505
 31
0.0
100
AcDbText
  0
TEXT
  5
254
100
AcDbEntity
  8
DIM
100
AcDbText
 10
4.684565
 20
6.259097
 30
0.0
 40
0.0625
  1
*
  7
ROMANS
 72
     1
 11
4.708375
 21
6.290347
 31
0.0
100
AcDbText
 73
     2
  0
LINE
  5
255
100
AcDbEntity
  8
DIM
100
AcDbLine
 10
4.156985
 20
5.943497
 30
0.0
 11
4.156985
 21
6.282075
 31
0.0
  0
LINE
  5
256
100
AcDbEntity
  8
DIM
100
AcDbLine
 10
4.346985
 20
6.433991
 30
0.0
 11
4.346985
 21
6.447741
 31
0.0
  0
LINE
  5
257
100
AcDbEntity
  8
DIM
100
AcDbLine
 10
4.936985
 20
5.370078
 30
0.0
 11
4.936985
 21
5.573652
 31
0.0
  0
LINE
  5
258
100
AcDbEntity
  8
DIM
100
AcDbLine
 10
4.409485
 20
6.402741
 30
0.0
 11
4.874485
 21
6.402741
 31
0.0
  0
SOLID
  5
259
100
AcDbEntity
  8
DIM
100
AcDbTrace
 10
4.409485
 20
6.413158
 30
0.0
 11
4.409485
 21
6.392325
 31
0.0
 12
4.346985
 22
6.402741
 32
0.0
 13
4.346985
 23
6.402741
 33
0.0
  0
SOLID
  5
25A
100
AcDbEntity
  8
DIM
100
AcDbTrace
 10
4.874485
 20
6.413158
 30
0.0
 11
4.874485
 21
6.392325
 31
0.0
 12
4.936985
 22
6.402741
 32
0.0
 13
4.936985
 23
6.402741
 33
0.0
  0
TEXT
  5
25B
100
AcDbEntity
  8
DIM
100
AcDbText
 10
4.539582
 20
6.433991
 30
0.0
 40
0.0625
  1
0.59
  7
ROMANS
 72
     4
 11
4.642261
 21
6.465241
 31
0.0
100
AcDbText
  0
LINE
  5
25C
100
AcDbEntity
  8
DIM
100
AcDbLine
 10
4.346985
 20
6.433991
 30
0.0
 11
4.346985
 21
6.607272
 31
0.0
  0
LINE
  5
25D
100
AcDbEntity
  8
DIM
100
AcDbLine
 10
2.149485
 20
6.562272
 30
0.0
 11
4.284485
 21
6.562272
 31
0.0
  0
SOLID
  5
25E
100
AcDbEntity
  8
DIM
100
AcDbTrace
 10
2.149485
 20
6.572689
 30
0.0
 11
2.149485
 21
6.551855
 31
0.0
 12
2.086985
 22
6.562272
 32
0.0
 13
2.086985
 23
6.562272
 33
0.0
  0
SOLID
  5
25F
100
AcDbEntity
  8
DIM
100
AcDbTrace
 10
4.284485
 20
6.572689
 30
0.0
 11
4.284485
 21
6.551855
 31
0.0
 12
4.346985
 22
6.562272
 32
0.0
 13
4.346985
 23
6.562272
 33
0.0
  0
TEXT
  5
260
100
AcDbEntity
  8
DIM
100
AcDbText
 10
3.070543
 20
6.593522
 30
0.0
 40
0.0625
  1
2.26
  7
ROMANS
 72
     4
 11
3.17471
 21
6.624772
 31
0.0
100
AcDbText
  0
LINE
  5
261
100
AcDbEntity
  8
DIM
100
AcDbLine
 10
2.086985
 20
5.715565
 30
0.0
 11
2.086985
 21
5.795882
 31
0.0
  0
LINE
  5
262
100
AcDbEntity
  8
DIM
100
AcDbLine
 10
2.041022
 20
4.515013
 30
0.0
 11
1.801276
 21
4.515013
 31
0.0
  0
LINE
  5
263
100
AcDbEntity
  8
DIM
100
AcDbLine
 10
1.846276
 20
4.515013
 30
0.0
 11
1.846276
 21
5.108513
 31
0.0
  0
SOLID
  5
264
100
AcDbEntity
  8
DIM
100
AcDbTrace
 10
1.835859
 20
4.577513
 30
0.0
 11
1.856692
 21
4.577513
 31
0.0
 12
1.846276
 22
4.515013
 32
0.0
 13
1.846276
 23
4.515013
 33
0.0
  0
SOLID
  5
265
100
AcDbEntity
  8
DIM
100
AcDbTrace
 10
1.835859
 20
5.108513
 30
0.0
 11
1.856692
 21
5.108513
 31
0.0
 12
1.846276
 22
5.171013
 32
0.0
 13
1.846276
 23
5.171013
 33
0.0
  0
TEXT
  5
266
100
AcDbEntity
  8
DIM
100
AcDbText
 10
1.815026
 20
4.722124
 30
0.0
 40
0.0625
  1
0.656
 50
90.0
  7
ROMANS
 72
     4
 11
1.783776
 21
4.856053
 31
0.0
100
AcDbText
  0
LINE
  5
267
100
AcDbEntity
  8
DIM
100
AcDbLine
 10
1.815026
 20
5.171013
 30
0.0
 11
1.801276
 21
5.171013
 31
0.0
  0
LINE
  5
268
100
AcDbEntity
  8
DIM
100
AcDbLine
 10
2.671043
 20
5.827013
 30
0.0
 11
1.801276
 21
5.827013
 31
0.0
  0
LINE
  5
269
100
AcDbEntity
  8
DIM
100
AcDbLine
 10
1.846276
 20
5.233513
 30
0.0
 11
1.846276
 21
5.827013
 31
0.0
  0
SOLID
  5
26A
100
AcDbEntity
  8
DIM
100
AcDbTrace
 10
1.835859
 20
5.233513
 30
0.0
 11
1.856692
 21
5.233513
 31
0.0
 12
1.846276
 22
5.171013
 32
0.0
 13
1.846276
 23
5.171013
 33
0.0
  0
SOLID
  5
26B
100
AcDbEntity
  8
DIM
100
AcDbTrace
 10
1.835859
 20
5.764513
 30
0.0
 11
1.856692
 21
5.764513
 31
0.0
 12
1.846276
 22
5.827013
 32
0.0
 13
1.846276
 23
5.827013
 33
0.0
  0
TEXT
  5
26C
100
AcDbEntity
  8
DIM
100
AcDbText
 10
1.815026
 20
5.378936
 30
0.0
 40
0.0625
  1
0.656
 50
90.0
  7
ROMANS
 72
     4
 11
1.783776
 21
5.512864
 31
0.0
100
AcDbText
  0
LINE
  5
26D
100
AcDbEntity
  8
DIM
100
AcDbLine
 10
2.305985
 20
5.875732
 30
0.0
 11
2.305985
 21
6.282075
 31
0.0
  0
LINE
  5
26E
100
AcDbEntity
  8
DIM
100
AcDbLine
 10
2.086985
 20
5.875732
 30
0.0
 11
2.086985
 21
6.607272
 31
0.0
  0
LINE
  5
26F
100
AcDbEntity
  8
DIM
100
AcDbLine
 10
4.94855
 20
4.983513
 30
0.0
 11
5.205069
 21
4.983513
 31
0.0
  0
LINE
  5
270
100
AcDbEntity
  8
DIM
100
AcDbLine
 10
4.94855
 20
5.358513
 30
0.0
 11
5.205069
 21
5.358513
 31
0.0
  0
LINE
  5
271
100
AcDbEntity
  8
DIM
100
AcDbLine
 10
5.160069
 20
4.921013
 30
0.0
 11
5.160069
 21
4.858513
 31
0.0
  0
LINE
  5
272
100
AcDbEntity
  8
DIM
100
AcDbLine
 10
5.160069
 20
5.421013
 30
0.0
 11
5.160069
 21
5.483513
 31
0.0
  0
SOLID
  5
273
100
AcDbEntity
  8
DIM
100
AcDbTrace
 10
5.149652
 20
4.921013
 30
0.0
 11
5.170485
 21
4.921013
 31
0.0
 12
5.160069
 22
4.983513
 32
0.0
 13
5.160069
 23
4.983513
 33
0.0
  0
SOLID
  5
274
100
AcDbEntity
  8
DIM
100
AcDbTrace
 10
5.149652
 20
5.421013
 30
0.0
 11
5.170485
 21
5.421013
 31
0.0
 12
5.160069
 22
5.358513
 32
0.0
 13
5.160069
 23
5.358513
 33
0.0
  0
TEXT
  5
275
100
AcDbEntity
  8
DIM
100
AcDbText
 10
5.191957
 20
5.013275
 30
0.0
 40
0.0625
  1
%%C0.375
 50
90.0
  7
ROMANS
 72
     4
 11
5.160707
 21
5.171013
 31
0.0
100
AcDbText
  0
TEXT
  5
276
100
AcDbEntity
  8
DIM
100
AcDbText
 10
5.287678
 20
5.078752
 30
0.0
 40
0.0625
  1
TYP.
 50
90.0
  7
ROMANS
 72
     4
 11
5.256428
 21
5.171013
 31
0.0
100
AcDbText
  0
LINE
  5
277
100
AcDbEntity
  8
DIM
100
AcDbLine
 10
4.378235
 20
4.733413
 30
0.0
 11
5.549118
 21
4.733413
 31
0.0
  0
LINE
  5
278
100
AcDbEntity
  8
DIM
100
AcDbLine
 10
4.378235
 20
5.608613
 30
0.0
 11
5.549118
 21
5.608613
 31
0.0
  0
LINE
  5
279
100
AcDbEntity
  8
DIM
100
AcDbLine
 10
5.504118
 20
4.795913
 30
0.0
 11
5.504118
 21
5.546113
 31
0.0
  0
SOLID
  5
27A
100
AcDbEntity
  8
DIM
100
AcDbTrace
 10
5.493702
 20
4.795913
 30
0.0
 11
5.514535
 21
4.795913
 31
0.0
 12
5.504118
 22
4.733413
 32
0.0
 13
5.504118
 23
4.733413
 33
0.0
  0
SOLID
  5
27B
100
AcDbEntity
  8
DIM
100
AcDbTrace
 10
5.493702
 20
5.546113
 30
0.0
 11
5.514535
 21
5.546113
 31
0.0
 12
5.504118
 22
5.608613
 32
0.0
 13
5.504118
 23
5.608613
 33
0.0
  0
TEXT
  5
27C
100
AcDbEntity
  8
DIM
100
AcDbText
 10
5.472868
 20
4.992442
 30
0.0
 40
0.0625
  1
%%c0.8751
 50
90.0
  7
ROMANS
 72
     4
 11
5.441618
 21
5.171013
 31
0.0
100
AcDbText
  0
TEXT
  5
27D
100
AcDbEntity
  8
DIM
100
AcDbText
 10
5.37894
 20
5.371338
 30
0.0
 40
0.0625
  1
*
  7
ROMANS
 72
     1
 11
5.40275
 21
5.402588
 31
0.0
100
AcDbText
 73
     2
  0
LINE
  5
27E
100
AcDbEntity
  8
DIM
100
AcDbLine
 10
4.936985
 20
5.650414
 30
0.0
 11
4.936985
 21
6.447741
 31
0.0
  0
LINE
  5
27F
100
AcDbEntity
  8
DIM
100
AcDbLine
 10
4.266985
 20
4.702163
 30
0.0
 11
4.266985
 21
4.212902
 31
0.0
  0
LINE
  5
280
100
AcDbEntity
  8
DIM
100
AcDbLine
 10
4.346985
 20
4.369763
 30
0.0
 11
4.346985
 21
4.212902
 31
0.0
  0
LINE
  5
281
100
AcDbEntity
  8
DIM
100
AcDbLine
 10
4.204485
 20
4.257902
 30
0.0
 11
4.141985
 21
4.257902
 31
0.0
  0
LINE
  5
282
100
AcDbEntity
  8
DIM
100
AcDbLine
 10
4.409485
 20
4.257902
 30
0.0
 11
4.471985
 21
4.257902
 31
0.0
  0
SOLID
  5
283
100
AcDbEntity
  8
DIM
100
AcDbTrace
 10
4.204485
 20
4.268318
 30
0.0
 11
4.204485
 21
4.247485
 31
0.0
 12
4.266985
 22
4.257902
 32
0.0
 13
4.266985
 23
4.257902
 33
0.0
  0
SOLID
  5
284
100
AcDbEntity
  8
DIM
100
AcDbTrace
 10
4.409485
 20
4.268318
 30
0.0
 11
4.409485
 21
4.247485
 31
0.0
 12
4.346985
 22
4.257902
 32
0.0
 13
4.346985
 23
4.257902
 33
0.0
  0
TEXT
  5
285
100
AcDbEntity
  8
DIM
100
AcDbText
 10
4.496877
 20
4.226848
 30
0.0
 40
0.0625
  1
0.08 MIN. BORE DEPTH
  7
ROMANS
 72
     4
 11
5.059377
 21
4.258098
 31
0.0
100
AcDbText
  0
TEXT
  5
286
100
AcDbEntity
  8
DIM
100
AcDbText
 10
5.62147
 20
4.285636
 30
0.0
 40
0.0625
  1
*
  7
ROMANS
 72
     1
 11
5.645279
 21
4.316886
 31
0.0
100
AcDbText
 73
     2
  0
LINE
  5
287
100
AcDbEntity
  8
DIM
100
AcDbLine
 10
7.787435
 20
6.121256
 30
0.0
 11
7.787435
 21
6.282075
 31
0.0
  0
LINE
  5
288
100
AcDbEntity
  8
DIM
100
AcDbLine
 10
7.411935
 20
6.237075
 30
0.0
 11
7.724935
 21
6.237075
 31
0.0
  0
SOLID
  5
289
100
AcDbEntity
  8
DIM
100
AcDbTrace
 10
7.411935
 20
6.247492
 30
0.0
 11
7.411935
 21
6.226658
 31
0.0
 12
7.349435
 22
6.237075
 32
0.0
 13
7.349435
 23
6.237075
 33
0.0
  0
SOLID
  5
28A
100
AcDbEntity
  8
DIM
100
AcDbTrace
 10
7.724935
 20
6.247492
 30
0.0
 11
7.724935
 21
6.226658
 31
0.0
 12
7.787435
 22
6.237075
 32
0.0
 13
7.787435
 23
6.237075
 33
0.0
  0
TEXT
  5
28B
100
AcDbEntity
  8
DIM
100
AcDbText
 10
7.42625
 20
6.268325
 30
0.0
 40
0.0625
  1
0.438
  7
ROMANS
 72
     4
 11
7.560179
 21
6.299575
 31
0.0
100
AcDbText
  0
LINE
  5
28C
100
AcDbEntity
  8
DIM
100
AcDbLine
 10
7.787435
 20
6.268325
 30
0.0
 11
7.787435
 21
6.282075
 31
0.0
  0
LINE
  5
28D
100
AcDbEntity
  8
DIM
100
AcDbLine
 10
7.239935
 20
6.402741
 30
0.0
 11
8.334935
 21
6.402741
 31
0.0
  0
SOLID
  5
28E
100
AcDbEntity
  8
DIM
100
AcDbTrace
 10
7.239935
 20
6.413158
 30
0.0
 11
7.239935
 21
6.392325
 31
0.0
 12
7.177435
 22
6.402741
 32
0.0
 13
7.177435
 23
6.402741
 33
0.0
  0
SOLID
  5
28F
100
AcDbEntity
  8
DIM
100
AcDbTrace
 10
8.334935
 20
6.413158
 30
0.0
 11
8.334935
 21
6.392325
 31
0.0
 12
8.397435
 22
6.402741
 32
0.0
 13
8.397435
 23
6.402741
 33
0.0
  0
TEXT
  5
290
100
AcDbEntity
  8
DIM
100
AcDbText
 10
7.678804
 20
6.433991
 30
0.0
 40
0.0625
  1
1.22
  7
ROMANS
 72
     4
 11
7.787435
 21
6.465241
 31
0.0
100
AcDbText
  0
LINE
  5
291
100
AcDbEntity
  8
DIM
100
AcDbLine
 10
7.177435
 20
5.87551
 30
0.0
 11
7.177435
 21
6.447741
 31
0.0
  0
LINE
  5
292
100
AcDbEntity
  8
DIM
100
AcDbLine
 10
8.397435
 20
5.881111
 30
0.0
 11
8.397435
 21
6.447741
 31
0.0
  0
LINE
  5
293
100
AcDbEntity
  8
DIM
100
AcDbLine
 10
7.162435
 20
6.058263
 30
0.0
 11
7.162435
 21
6.607272
 31
0.0
  0
LINE
  5
294
100
AcDbEntity
  8
DIM
100
AcDbLine
 10
8.412435
 20
6.058263
 30
0.0
 11
8.412435
 21
6.607272
 31
0.0
  0
LINE
  5
295
100
AcDbEntity
  8
DIM
100
AcDbLine
 10
7.224935
 20
6.562272
 30
0.0
 11
8.349935
 21
6.562272
 31
0.0
  0
SOLID
  5
296
100
AcDbEntity
  8
DIM
100
AcDbTrace
 10
7.224935
 20
6.572689
 30
0.0
 11
7.224935
 21
6.551855
 31
0.0
 12
7.162435
 22
6.562272
 32
0.0
 13
7.162435
 23
6.562272
 33
0.0
  0
SOLID
  5
297
100
AcDbEntity
  8
DIM
100
AcDbTrace
 10
8.349935
 20
6.572689
 30
0.0
 11
8.349935
 21
6.551855
 31
0.0
 12
8.412435
 22
6.562272
 32
0.0
 13
8.412435
 23
6.562272
 33
0.0
  0
TEXT
  5
298
100
AcDbEntity
  8
DIM
100
AcDbText
 10
7.678804
 20
6.593522
 30
0.0
 40
0.0625
  1
1.25
  7
ROMANS
 72
     4
 11
7.787435
 21
6.624772
 31
0.0
100
AcDbText
  0
LINE
  5
299
100
AcDbEntity
  8
DIM
100
AcDbLine
 10
7.043587
 20
4.577013
 30
0.0
 11
6.89391
 21
4.577013
 31
0.0
  0
LINE
  5
29A
100
AcDbEntity
  8
DIM
100
AcDbLine
 10
7.063272
 20
5.171013
 30
0.0
 11
6.89391
 21
5.171013
 31
0.0
  0
LINE
  5
29B
100
AcDbEntity
  8
DIM
100
AcDbLine
 10
6.93891
 20
4.642962
 30
0.0
 11
6.93891
 21
5.108513
 31
0.0
  0
SOLID
  5
29C
100
AcDbEntity
  8
DIM
100
AcDbTrace
 10
6.928493
 20
4.639513
 30
0.0
 11
6.949326
 21
4.639513
 31
0.0
 12
6.93891
 22
4.577013
 32
0.0
 13
6.93891
 23
4.577013
 33
0.0
  0
SOLID
  5
29D
100
AcDbEntity
  8
DIM
100
AcDbTrace
 10
6.928493
 20
5.108513
 30
0.0
 11
6.949326
 21
5.108513
 31
0.0
 12
6.93891
 22
5.171013
 32
0.0
 13
6.93891
 23
5.171013
 33
0.0
  0
LINE
  5
29E
100
AcDbEntity
  8
DIM
100
AcDbLine
 10
7.043587
 20
5.765013
 30
0.0
 11
6.89391
 21
5.765013
 31
0.0
  0
LINE
  5
29F
100
AcDbEntity
  8
DIM
100
AcDbLine
 10
6.93891
 20
5.233513
 30
0.0
 11
6.93891
 21
5.702513
 31
0.0
  0
SOLID
  5
2A0
100
AcDbEntity
  8
DIM
100
AcDbTrace
 10
6.928493
 20
5.233513
 30
0.0
 11
6.949326
 21
5.233513
 31
0.0
 12
6.93891
 22
5.171013
 32
0.0
 13
6.93891
 23
5.171013
 33
0.0
  0
SOLID
  5
2A1
100
AcDbEntity
  8
DIM
100
AcDbTrace
 10
6.928493
 20
5.702513
 30
0.0
 11
6.949326
 21
5.702513
 31
0.0
 12
6.93891
 22
5.765013
 32
0.0
 13
6.93891
 23
5.765013
 33
0.0
  0
TEXT
  5
2A2
100
AcDbEntity
  8
DIM
100
AcDbText
 10
6.90766
 20
5.335736
 30
0.0
 40
0.0625
  1
0.594
 50
90.0
  7
ROMANS
 72
     4
 11
6.87641
 21
5.471153
 31
0.0
100
AcDbText
  0
LINE
  5
2A3
100
AcDbEntity
  8
DIM
100
AcDbLine
 10
6.730846
 20
4.463513
 30
0.0
 11
6.730846
 21
5.878513
 31
0.0
  0
SOLID
  5
2A4
100
AcDbEntity
  8
DIM
100
AcDbTrace
 10
6.72043
 20
4.463513
 30
0.0
 11
6.741263
 21
4.463513
 31
0.0
 12
6.730846
 22
4.401013
 32
0.0
 13
6.730846
 23
4.401013
 33
0.0
  0
SOLID
  5
2A5
100
AcDbEntity
  8
DIM
100
AcDbTrace
 10
6.72043
 20
5.878513
 30
0.0
 11
6.741263
 21
5.878513
 31
0.0
 12
6.730846
 22
5.941013
 32
0.0
 13
6.730846
 23
5.941013
 33
0.0
  0
TEXT
  5
2A6
100
AcDbEntity
  8
DIM
100
AcDbText
 10
6.699596
 20
5.051394
 30
0.0
 40
0.0625
  1
1.54
 50
90.0
  7
ROMANS
 72
     4
 11
6.668346
 21
5.161513
 31
0.0
100
AcDbText
  0
TEXT
  5
2A7
100
AcDbEntity
  8
DIM
100
AcDbText
 10
7.689834
 20
6.312442
 30
0.0
 40
0.0625
  1
*
  7
ROMANS
 72
     1
 11
7.713644
 21
6.343692
 31
0.0
100
AcDbText
 73
     2
  0
TEXT
  5
2A8
100
AcDbEntity
  8
DIM
100
AcDbText
 10
6.811979
 20
5.594502
 30
0.0
 40
0.0625
  1
*
  7
ROMANS
 72
     1
 11
6.835789
 21
5.625752
 31
0.0
100
AcDbText
 73
     2
  0
TEXT
  5
2A9
100
AcDbEntity
  8
DIM
100
AcDbText
 10
6.603956
 20
5.247773
 30
0.0
 40
0.0625
  1
*
  7
ROMANS
 72
     1
 11
6.627766
 21
5.279023
 31
0.0
100
AcDbText
 73
     2
  0
TEXT
  5
2AA
100
AcDbEntity
  8
DIM
100
AcDbText
 10
7.874112
 20
6.477524
 30
0.0
 40
0.0625
  1
*
  7
ROMANS
 72
     1
 11
7.897922
 21
6.508774
 31
0.0
100
AcDbText
 73
     2
  0
SOLID
  5
2AB
100
AcDbEntity
  8
DIM
100
AcDbTrace
 10
8.354431
 20
5.685095
 30
0.0
 11
8.363224
 21
5.703982
 31
0.0
 12
8.302167
 22
5.720916
 32
0.0
 13
8.302167
 23
5.720916
 33
0.0
  0
LINE
  5
2AC
100
AcDbEntity
  8
DIM
100
AcDbLine
 10
8.358828
 20
5.694538
 30
0.0
 11
8.759464
 21
5.503552
 31
0.0
  0
LINE
  5
2AD
100
AcDbEntity
  8
DIM
100
AcDbLine
 10
8.759464
 20
5.503552
 30
0.0
 11
8.821964
 21
5.503552
 31
0.0
  0
TEXT
  5
2AE
100
AcDbEntity
  8
DIM
100
AcDbText
 10
8.849171
 20
5.473845
 30
0.0
 40
0.0625
  1
%%C0.177
  7
ROMANS
 11
8.849171
 21
5.505095
 31
0.0
100
AcDbText
 73
     2
  0
TEXT
  5
2AF
100
AcDbEntity
  8
DIM
100
AcDbText
 10
8.793368
 20
5.37479
 30
0.0
 40
0.0625
  1
4 HOLES
  7
ROMANS
 11
8.793368
 21
5.40604
 31
0.0
100
AcDbText
 73
     2
  0
TEXT
  5
2B0
100
AcDbEntity
  8
DIM
100
AcDbText
 10
9.169136
 20
5.529005
 30
0.0
 40
0.0625
  1
*
  7
ROMANS
 72
     1
 11
9.192946
 21
5.560255
 31
0.0
100
AcDbText
 73
     2
  0
LINE
  5
2B1
100
AcDbEntity
  8
DIM
100
AcDbLine
 10
8.428685
 20
3.006013
 30
0.0
 11
8.767981
 21
3.006013
 31
0.0
  0
LINE
  5
2B2
100
AcDbEntity
  8
DIM
100
AcDbLine
 10
8.511599
 20
5.171013
 30
0.0
 11
8.767981
 21
5.171013
 31
0.0
  0
LINE
  5
2B3
100
AcDbEntity
  8
DIM
100
AcDbLine
 10
8.722981
 20
3.068513
 30
0.0
 11
8.722981
 21
5.108513
 31
0.0
  0
SOLID
  5
2B4
100
AcDbEntity
  8
DIM
100
AcDbTrace
 10
8.712564
 20
3.068513
 30
0.0
 11
8.733398
 21
3.068513
 31
0.0
 12
8.722981
 22
3.006013
 32
0.0
 13
8.722981
 23
3.006013
 33
0.0
  0
SOLID
  5
2B5
100
AcDbEntity
  8
DIM
100
AcDbTrace
 10
8.712564
 20
5.108513
 30
0.0
 11
8.733398
 21
5.108513
 31
0.0
 12
8.722981
 22
5.171013
 32
0.0
 13
8.722981
 23
5.171013
 33
0.0
  0
TEXT
  5
2B6
100
AcDbEntity
  8
DIM
100
AcDbText
 10
8.691731
 20
4.02372
 30
0.0
 40
0.0625
  1
2.165
 50
90.0
  7
ROMANS
 72
     4
 11
8.660481
 21
4.157648
 31
0.0
100
AcDbText
  0
LINE
  5
2B7
100
AcDbEntity
  8
DIM
100
AcDbLine
 10
8.691731
 20
3.006013
 30
0.0
 11
8.677981
 21
3.006013
 31
0.0
  0
LINE
  5
2B8
100
AcDbEntity
  8
DIM
100
AcDbLine
 10
8.722981
 20
2.478513
 30
0.0
 11
8.722981
 21
2.943513
 31
0.0
  0
SOLID
  5
2B9
100
AcDbEntity
  8
DIM
100
AcDbTrace
 10
8.712564
 20
2.478513
 30
0.0
 11
8.733398
 21
2.478513
 31
0.0
 12
8.722981
 22
2.416013
 32
0.0
 13
8.722981
 23
2.416013
 33
0.0
  0
SOLID
  5
2BA
100
AcDbEntity
  8
DIM
100
AcDbTrace
 10
8.712564
 20
2.943513
 30
0.0
 11
8.733398
 21
2.943513
 31
0.0
 12
8.722981
 22
3.006013
 32
0.0
 13
8.722981
 23
3.006013
 33
0.0
  0
TEXT
  5
2BB
100
AcDbEntity
  8
DIM
100
AcDbText
 10
8.691731
 20
2.600988
 30
0.0
 40
0.0625
  1
0.59
 50
90.0
  7
ROMANS
 72
     4
 11
8.660481
 21
2.703667
 31
0.0
100
AcDbText
  0
TEXT
  5
2BC
100
AcDbEntity
  8
DIM
100
AcDbText
 10
2.758096
 20
2.127385
 30
0.0
 40
0.125
  1
-A-
  7
ROMANS
 72
     1
 11
2.966429
 21
2.189885
 31
0.0
100
AcDbText
 73
     2
  0
TEXT
  5
2BD
100
AcDbEntity
  8
DIM
100
AcDbText
 10
5.603324
 20
5.110605
 30
0.0
 40
0.125
  1
-B-
  7
ROMANS
 72
     4
 11
5.820586
 21
5.173105
 31
0.0
100
AcDbText
  0
SOLID
  5
2BE
100
AcDbEntity
  8
DIM
100
AcDbTrace
 10
2.182228
 20
4.407161
 30
0.0
 11
2.195758
 21
4.39132
 31
0.0
 12
2.236517
 22
4.439833
 32
0.0
 13
2.236517
 23
4.439833
 33
0.0
  0
LINE
  5
2BF
100
AcDbEntity
  8
DIM
100
AcDbLine
 10
2.188993
 20
4.39924
 30
0.0
 11
1.778396
 21
4.048528
 31
0.0
  0
LINE
  5
2C0
100
AcDbEntity
  8
DIM
100
AcDbLine
 10
1.778396
 20
4.048528
 30
0.0
 11
1.715896
 21
4.048528
 31
0.0
  0
TEXT
  5
2C1
100
AcDbEntity
  8
DIM
100
AcDbText
 10
1.361623
 20
4.017798
 30
0.0
 40
0.0625
  1
%%c0.203
  7
ROMANS
 72
     2
 11
1.677099
 21
4.049048
 31
0.0
100
AcDbText
 73
     2
  0
TEXT
  5
2C2
100
AcDbEntity
  8
DIM
100
AcDbText
 10
1.308527
 20
3.926378
 30
0.0
 40
0.0625
  1
3 HOLES
  7
ROMANS
 72
     2
 11
1.719242
 21
3.957628
 31
0.0
100
AcDbText
 73
     2
  0
TEXT
  5
2C3
100
AcDbEntity
  8
DIM
100
AcDbText
 10
4.98805
 20
6.428391
 30
0.0
 40
0.0625
  1
STANDARD LENGTH
  7
ROMANS
100
AcDbText
  0
TEXT
  5
2C4
100
AcDbEntity
  8
DIM
100
AcDbText
 10
4.98805
 20
6.327201
 30
0.0
 40
0.0625
  1
SHAFT EXTENSION
  7
ROMANS
100
AcDbText
  0
LINE
  5
2C5
100
AcDbEntity
  8
DIM
100
AcDbLine
 10
3.808081
 20
4.338762
 30
0.0
 11
4.146609
 21
4.049608
 31
0.0
  0
TEXT
  5
2C6
100
AcDbEntity
  8
DIM
100
AcDbText
 10
4.121093
 20
3.927458
 30
0.0
 40
0.0625
  1
3 BOSSES
  7
ROMANS
 72
     2
 11
4.597283
 21
3.958708
 31
0.0
100
AcDbText
 73
     2
  0
TEXT
  5
2C7
100
AcDbEntity
  8
DIM
100
AcDbText
 10
4.239421
 20
4.018878
 30
0.0
 40
0.0625
  1
%%c0.40
  7
ROMANS
 72
     2
 11
4.495373
 21
4.050128
 31
0.0
100
AcDbText
 73
     2
  0
LINE
  5
2C8
100
AcDbEntity
  8
DIM
100
AcDbLine
 10
4.146609
 20
4.049608
 30
0.0
 11
4.209109
 21
4.049608
 31
0.0
  0
SOLID
  5
2C9
100
AcDbEntity
  8
DIM
100
AcDbTrace
 10
3.814847
 20
4.346683
 30
0.0
 11
3.801316
 21
4.330842
 31
0.0
 12
3.760558
 22
4.379355
 32
0.0
 13
3.760558
 23
4.379355
 33
0.0
  0
TEXT
  5
2CA
100
AcDbEntity
  8
TEXT
100
AcDbText
 10
0.261107
 20
0.407606
 30
0.0
 40
0.0625
  1
4. HOUSING FINISH: CHEMICAL FILM; SHAFTS: STAINLESS STEEL PASSIVATED.
  7
ROMANS
100
AcDbText
  0
TEXT
  5
2CB
100
AcDbEntity
  8
TEXT
100
AcDbText
 10
0.412263
 20
0.306416
 30
0.0
 40
0.0625
  1
ON R3000-2, SHAFT "A" IS CADMIUM PLATED.
  7
ROMANS
100
AcDbText
  0
LINE
  5
2CC
100
AcDbEntity
  8
CEN
100
AcDbLine
 10
2.36815
 20
3.274754
 30
0.0
 11
2.36815
 21
2.927273
 31
0.0
  0
LINE
  5
2CD
100
AcDbEntity
  8
OBJ
  6
HIDDEN
100
AcDbLine
 10
2.27965
 20
3.006013
 30
0.0
 11
2.27965
 21
3.196013
 31
0.0
  0
LINE
  5
2CE
100
AcDbEntity
  8
OBJ
  6
HIDDEN
100
AcDbLine
 10
2.45665
 20
3.006013
 30
0.0
 11
2.45665
 21
3.196013
 31
0.0
  0
LINE
  5
2CF
100
AcDbEntity
  8
CEN
100
AcDbLine
 10
3.55615
 20
3.274754
 30
0.0
 11
3.55615
 21
2.927273
 31
0.0
  0
LINE
  5
2D0
100
AcDbEntity
  8
CEN
100
AcDbLine
 10
7.349435
 20
3.274754
 30
0.0
 11
7.349435
 21
2.927473
 31
0.0
  0
LINE
  5
2D1
100
AcDbEntity
  8
OBJ
  6
HIDDEN
100
AcDbLine
 10
7.260935
 20
3.006213
 30
0.0
 11
7.260935
 21
3.196013
 31
0.0
  0
LINE
  5
2D2
100
AcDbEntity
  8
OBJ
  6
HIDDEN
100
AcDbLine
 10
7.437935
 20
3.006213
 30
0.0
 11
7.437935
 21
3.196013
 31
0.0
  0
TEXT
  5
2D3
100
AcDbEntity
  8
BORDER
100
AcDbText
 10
8.58263
 20
7.32375
 30
0.0
 40
0.0625
  1
C
  7
SIMPLEX
 72
     4
 11
8.604952
 21
7.355
 31
0.0
100
AcDbText
  0
TEXT
  5
2D4
100
AcDbEntity
  8
BORDER
100
AcDbText
 10
8.802742
 20
7.32375
 30
0.0
 40
0.0625
  1
REDRAWN IN CAD
  7
SIMPLEX
 11
8.802742
 21
7.355
 31
0.0
100
AcDbText
 73
     2
  0
POLYLINE
  5
2D5
100
AcDbEntity
  8
BORDER
100
AcDb2dPolyline
 66
     1
 10
0.0
 20
0.0
 30
0.0
 40
0.01
 41
0.01
  0
VERTEX
  5
2D6
100
AcDbEntity
  8
BORDER
100
AcDbVertex
100
AcDb2dVertex
 10
8.479952
 20
7.2925
 30
0.0
  0
VERTEX
  5
2D7
100
AcDbEntity
  8
BORDER
100
AcDbVertex
100
AcDb2dVertex
 10
10.48
 20
7.2925
 30
0.0
  0
SEQEND
  5
2D8
100
AcDbEntity
  8
BORDER
  0
LINE
  5
2D9
100
AcDbEntity
  8
DIM
100
AcDbLine
 10
7.219229
 20
4.401013
 30
0.0
 11
6.685846
 21
4.401013
 31
0.0
  0
LINE
  5
2DA
100
AcDbEntity
  8
DIM
100
AcDbLine
 10
7.251681
 20
5.941013
 30
0.0
 11
6.685846
 21
5.941013
 31
0.0
  0
TEXT
  5
2DB
100
AcDbEntity
  8
DIM
100
AcDbText
 10
5.099837
 20
5.011787
 30
0.0
 40
0.0625
  1
%%C0.374
 50
90.0
  7
ROMANS
 72
     4
 11
5.068587
 21
5.171013
 31
0.0
100
AcDbText
  0
LINE
  5
2DC
100
AcDbEntity
  8
CEN
100
AcDbLine
 10
2.105982
 20
5.171013
 30
0.0
 11
1.987916
 21
5.171013
 31
0.0
  0
LINE
  5
2DD
100
AcDbEntity
  8
DIM
100
AcDbLine
 10
1.957445
 20
5.171013
 30
0.0
 11
1.801276
 21
5.171013
 31
0.0
  0
LINE
  5
2DE
100
AcDbEntity
  8
CEN
100
AcDbLine
 10
2.305985
 20
4.255713
 30
0.0
 11
2.305985
 21
4.774313
 31
0.0
  0
LINE
  5
2DF
100
AcDbEntity
  8
OBJ
100
AcDbLine
 10
2.116956
 20
4.647249
 30
0.0
 11
2.143695
 21
4.631897
 31
0.0
  0
CIRCLE
  5
2E0
100
AcDbEntity
  8
OBJ
  6
CONTINUOUS
100
AcDbCircle
 10
3.617985
 20
4.515013
 30
0.0
 40
0.1015
  0
CIRCLE
  5
2E1
100
AcDbEntity
  8
OBJ
  6
CONTINUOUS
100
AcDbCircle
 10
3.617985
 20
4.515013
 30
0.0
 40
0.2
  0
LINE
  5
2E2
100
AcDbEntity
  8
CEN
100
AcDbLine
 10
3.617985
 20
4.255713
 30
0.0
 11
3.617985
 21
4.774313
 31
0.0
  0
LINE
  5
2E3
100
AcDbEntity
  8
OBJ
  6
CONTINUOUS
100
AcDbLine
 10
3.617985
 20
4.315013
 30
0.0
 11
3.572372
 21
4.315013
 31
0.0
  0
ARC
  5
2E4
100
AcDbEntity
  8
OBJ
  6
CONTINUOUS
100
AcDbCircle
 10
3.572372
 20
4.236273
 30
0.0
 40
0.07874
100
AcDbArc
 50
90.0
 51
179.99061
  0
LINE
  5
2E5
100
AcDbEntity
  8
OBJ
100
AcDbLine
 10
4.078245
 20
4.639613
 30
0.0
 11
3.77443
 21
4.639613
 31
0.0
  0
LINE
  5
2E6
100
AcDbEntity
  8
OBJ
  6
CONTINUOUS
100
AcDbLine
 10
3.777985
 20
5.702613
 30
0.0
 11
3.220885
 21
5.702613
 31
0.0
  0
LINE
  5
2E7
100
AcDbEntity
  8
OBJ
  6
CONTINUOUS
100
AcDbLine
 10
3.161985
 20
5.827013
 30
0.0
 11
3.161985
 21
5.761613
 31
0.0
  0
ARC
  5
2E8
100
AcDbEntity
  8
OBJ
  6
CONTINUOUS
100
AcDbCircle
 10
3.220885
 20
5.761613
 30
0.0
 40
0.059
100
AcDbArc
 50
180.0
 51
270.0
  0
LINE
  5
2E9
100
AcDbEntity
  8
OBJ
  6
HIDDEN
100
AcDbLine
 10
3.64465
 20
3.006013
 30
0.0
 11
3.64465
 21
3.196013
 31
0.0
  0
LINE
  5
2EA
100
AcDbEntity
  8
OBJ
  6
HIDDEN
100
AcDbLine
 10
3.46765
 20
3.006013
 30
0.0
 11
3.46765
 21
3.196013
 31
0.0
  0
LINE
  5
2EB
100
AcDbEntity
  8
OBJ
  6
CONTINUOUS
100
AcDbLine
 10
4.156985
 20
4.460113
 30
0.0
 11
4.156985
 21
5.881958
 31
0.0
  0
LINE
  5
2EC
100
AcDbEntity
  8
OBJ
  6
CONTINUOUS
100
AcDbLine
 10
4.346985
 20
5.941013
 30
0.0
 11
4.346985
 21
4.401013
 31
0.0
  0
LINE
  5
2ED
100
AcDbEntity
  8
OBJ
  6
HIDDEN
100
AcDbLine
 10
4.266985
 20
5.608613
 30
0.0
 11
4.266985
 21
4.733413
 31
0.0
  0
LINE
  5
2EE
100
AcDbEntity
  8
OBJ
  6
CONTINUOUS
100
AcDbLine
 10
4.346985
 20
4.401013
 30
0.0
 11
4.215985
 21
4.401013
 31
0.0
  0
ARC
  5
2EF
100
AcDbEntity
  8
OBJ
  6
CONTINUOUS
100
AcDbCircle
 10
4.215985
 20
4.460113
 30
0.0
 40
0.059
100
AcDbArc
 50
180.0
 51
270.0
  0
LINE
  5
2F0
100
AcDbEntity
  8
CEN
100
AcDbLine
 10
4.078245
 20
4.577013
 30
0.0
 11
4.425725
 21
4.577013
 31
0.0
  0
LINE
  5
2F1
100
AcDbEntity
  8
OBJ
  6
HIDDEN
100
AcDbLine
 10
4.346985
 20
4.665513
 30
0.0
 11
4.156985
 21
4.665513
 31
0.0
  0
LINE
  5
2F2
100
AcDbEntity
  8
OBJ
  6
HIDDEN
100
AcDbLine
 10
4.346985
 20
4.488513
 30
0.0
 11
4.156985
 21
4.488513
 31
0.0
  0
LINE
  5
2F3
100
AcDbEntity
  8
OBJ
  6
HIDDEN
100
AcDbLine
 10
4.346985
 20
4.733413
 30
0.0
 11
4.266985
 21
4.733413
 31
0.0
  0
LINE
  5
2F4
100
AcDbEntity
  8
OBJ
  6
HIDDEN
100
AcDbLine
 10
4.346985
 20
5.608613
 30
0.0
 11
4.266985
 21
5.608613
 31
0.0
  0
LINE
  5
2F5
100
AcDbEntity
  8
CEN
100
AcDbLine
 10
4.078245
 20
5.765013
 30
0.0
 11
4.425725
 21
5.765013
 31
0.0
  0
LINE
  5
2F6
100
AcDbEntity
  8
OBJ
  6
CONTINUOUS
100
AcDbLine
 10
4.21604
 20
5.941013
 30
0.0
 11
4.346985
 21
5.941013
 31
0.0
  0
ARC
  5
2F7
100
AcDbEntity
  8
OBJ
  6
CONTINUOUS
100
AcDbCircle
 10
4.21604
 20
5.881958
 30
0.0
 40
0.059055
100
AcDbArc
 50
90.0
 51
180.0
  0
LINE
  5
2F8
100
AcDbEntity
  8
CEN
100
AcDbLine
 10
7.119128
 20
5.765013
 30
0.0
 11
8.455743
 21
5.765013
 31
0.0
  0
LINE
  5
2F9
100
AcDbEntity
  8
CEN
100
AcDbLine
 10
7.349435
 20
4.276013
 30
0.0
 11
7.349435
 21
6.093454
 31
0.0
  0
CIRCLE
  5
2FA
100
AcDbEntity
  8
OBJ
  6
CONTINUOUS
100
AcDbCircle
 10
7.349435
 20
5.765013
 30
0.0
 40
0.0885
  0
CIRCLE
  5
2FB
100
AcDbEntity
  8
OBJ
  6
CONTINUOUS
100
AcDbCircle
 10
8.225435
 20
5.765013
 30
0.0
 40
0.0885
  0
LINE
  5
2FC
100
AcDbEntity
  8
CEN
100
AcDbLine
 10
8.225435
 20
4.276013
 30
0.0
 11
8.225435
 21
6.093454
 31
0.0
  0
LINE
  5
2FD
100
AcDbEntity
  8
DIM
100
AcDbLine
 10
7.349435
 20
6.118616
 30
0.0
 11
7.349435
 21
6.282075
 31
0.0
  0
SOLID
  5
2FE
100
AcDbEntity
  8
DIM
100
AcDbTrace
 10
7.849935
 20
6.247492
 30
0.0
 11
7.849935
 21
6.226658
 31
0.0
 12
7.787435
 22
6.237075
 32
0.0
 13
7.787435
 23
6.237075
 33
0.0
  0
LINE
  5
2FF
100
AcDbEntity
  8
DIM
100
AcDbLine
 10
8.162935
 20
6.237075
 30
0.0
 11
7.849935
 21
6.237075
 31
0.0
  0
LINE
  5
300
100
AcDbEntity
  8
DIM
100
AcDbLine
 10
8.225435
 20
6.118616
 30
0.0
 11
8.225435
 21
6.282075
 31
0.0
  0
SOLID
  5
301
100
AcDbEntity
  8
DIM
100
AcDbTrace
 10
8.162935
 20
6.247492
 30
0.0
 11
8.162935
 21
6.226658
 31
0.0
 12
8.225435
 22
6.237075
 32
0.0
 13
8.225435
 23
6.237075
 33
0.0
  0
TEXT
  5
302
100
AcDbEntity
  8
DIM
100
AcDbText
 10
7.857234
 20
6.268325
 30
0.0
 40
0.0625
  1
0.438
  7
ROMANS
 72
     4
 11
7.991163
 21
6.299575
 31
0.0
100
AcDbText
  0
TEXT
  5
303
100
AcDbEntity
  8
DIM
100
AcDbText
 10
8.120818
 20
6.312442
 30
0.0
 40
0.0625
  1
*
  7
ROMANS
 72
     1
 11
8.144627
 21
6.343692
 31
0.0
100
AcDbText
 73
     2
  0
CIRCLE
  5
304
100
AcDbEntity
  8
OBJ
  6
CONTINUOUS
100
AcDbCircle
 10
7.349435
 20
4.577013
 30
0.0
 40
0.0885
  0
CIRCLE
  5
305
100
AcDbEntity
  8
OBJ
  6
CONTINUOUS
100
AcDbCircle
 10
8.225435
 20
4.577013
 30
0.0
 40
0.0885
  0
LINE
  5
306
100
AcDbEntity
  8
CEN
100
AcDbLine
 10
7.094522
 20
4.577013
 30
0.0
 11
8.480349
 21
4.577013
 31
0.0
  0
TEXT
  5
307
100
AcDbEntity
  8
DIM
100
AcDbText
 10
6.811979
 20
5.000502
 30
0.0
 40
0.0625
  1
*
  7
ROMANS
 72
     1
 11
6.835789
 21
5.031752
 31
0.0
100
AcDbText
 73
     2
  0
TEXT
  5
308
100
AcDbEntity
  8
DIM
100
AcDbText
 10
6.90766
 20
4.741736
 30
0.0
 40
0.0625
  1
0.594
 50
90.0
  7
ROMANS
 72
     4
 11
6.87641
 21
4.877153
 31
0.0
100
AcDbText
  0
LINE
  5
309
100
AcDbEntity
  8
OBJ
  6
HIDDEN
100
AcDbLine
 10
4.346985
 20
5.853513
 30
0.0
 11
4.156985
 21
5.853513
 31
0.0
  0
LINE
  5
30A
100
AcDbEntity
  8
OBJ
  6
HIDDEN
100
AcDbLine
 10
4.346985
 20
5.676513
 30
0.0
 11
4.156985
 21
5.676513
 31
0.0
  0
LINE
  5
30B
100
AcDbEntity
  8
OBJ
  6
CONTINUOUS
100
AcDbLine
 10
7.599935
 20
2.435699
 30
0.0
 11
7.599935
 21
3.006013
 31
0.0
  0
LINE
  5
30C
100
AcDbEntity
  8
OBJ
  6
CONTINUOUS
100
AcDbLine
 10
7.974935
 20
3.006013
 30
0.0
 11
7.974935
 21
2.435699
 31
0.0
  0
LINE
  5
30D
100
AcDbEntity
  8
OBJ
  6
CONTINUOUS
100
AcDbLine
 10
7.95525
 20
2.416013
 30
0.0
 11
7.61962
 21
2.416013
 31
0.0
  0
LINE
  5
30E
100
AcDbEntity
  8
OBJ
  6
CONTINUOUS
100
AcDbLine
 10
7.974935
 20
2.435699
 30
0.0
 11
7.599935
 21
2.435699
 31
0.0
  0
LINE
  5
30F
100
AcDbEntity
  8
OBJ
  6
CONTINUOUS
100
AcDbLine
 10
7.599935
 20
2.435699
 30
0.0
 11
7.61962
 21
2.416013
 31
0.0
  0
LINE
  5
310
100
AcDbEntity
  8
OBJ
  6
CONTINUOUS
100
AcDbLine
 10
7.95525
 20
2.416013
 30
0.0
 11
7.974935
 21
2.435699
 31
0.0
  0
LINE
  5
311
100
AcDbEntity
  8
DIM
100
AcDbLine
 10
7.999997
 20
2.416013
 30
0.0
 11
8.767981
 21
2.416013
 31
0.0
  0
LINE
  5
312
100
AcDbEntity
  8
CEN
100
AcDbLine
 10
8.225435
 20
3.274754
 30
0.0
 11
8.225435
 21
2.927473
 31
0.0
  0
LINE
  5
313
100
AcDbEntity
  8
OBJ
  6
HIDDEN
100
AcDbLine
 10
8.313935
 20
3.006213
 30
0.0
 11
8.313935
 21
3.196013
 31
0.0
  0
LINE
  5
314
100
AcDbEntity
  8
OBJ
  6
HIDDEN
100
AcDbLine
 10
8.136935
 20
3.006213
 30
0.0
 11
8.136935
 21
3.196013
 31
0.0
  0
CIRCLE
  5
315
100
AcDbEntity
  8
OBJ
100
AcDbCircle
 10
7.787435
 20
5.171013
 30
0.0
 40
0.1675
  0
CIRCLE
  5
316
100
AcDbEntity
  8
OBJ
  6
CONTINUOUS
100
AcDbCircle
 10
7.787435
 20
5.171013
 30
0.0
 40
0.4575
  0
ARC
  5
317
100
AcDbEntity
  8
OBJ
  6
CONTINUOUS
100
AcDbCircle
 10
7.207435
 20
3.165813
 30
0.0
 40
0.03
100
AcDbArc
 50
90.0
 51
180.0
  0
ARC
  5
318
100
AcDbEntity
  8
OBJ
  6
CONTINUOUS
100
AcDbCircle
 10
8.367435
 20
3.165813
 30
0.0
 40
0.03
100
AcDbArc
 50
0.0
 51
90.0
  0
INSERT
  5
319
100
AcDbEntity
  8
OBJ
100
AcDbBlockReference
 66
     1
  2
OTITLE
 10
10.48
 20
0.0
 30
0.0
 41
0.5
 42
0.5
 43
0.5
  0
ATTRIB
  5
31A
100
AcDbEntity
  8
BORDER
100
AcDbText
 10
9.444471
 20
0.180277
 30
0.0
 40
0.125
  1
OR3000
  7
SIMPLEX
 72
     1
 11
9.792685
 21
0.242777
 31
0.0
100
AcDbAttribute
  2
DRAWINGNO
 70
     0
 74
     2
  0
ATTRIB
  5
31B
100
AcDbEntity
  8
BORDER
100
AcDbText
 10
8.813492
 20
0.672033
 30
0.0
 40
0.125
  1
OUTLINE DRAWING
 41
0.8
  7
SIMPLEX
 72
     1
 11
9.480158
 21
0.734533
 31
0.0
100
AcDbAttribute
  2
DESCRIPTION
 70
     0
 74
     2
  0
ATTRIB
  5
31C
100
AcDbEntity
  8
BORDER
100
AcDbText
 10
8.75873
 20
0.496663
 30
0.0
 40
0.125
  1
R3000 & R3000-2
 41
0.8
  7
SIMPLEX
 72
     1
 11
9.480158
 21
0.559163
 31
0.0
100
AcDbAttribute
  2
DESCRIPTION
 70
     0
 74
     2
  0
ATTRIB
  5
31D
100
AcDbEntity
  8
BORDER
100
AcDbText
 10
8.935568
 20
0.180277
 30
0.0
 40
0.125
  1
C
  7
SIMPLEX
 72
     1
 11
8.98021
 21
0.242777
 31
0.0
100
AcDbAttribute
  2
SZ
 70
     0
 74
     2
  0
ATTRIB
  5
31E
100
AcDbEntity
  8
BORDER
100
AcDbText
 10
7.966262
 20
0.062694
 30
0.0
 40
0.125
  1
2:1
  7
SIMPLEX
 72
     1
 11
8.085309
 21
0.125194
 31
0.0
100
AcDbAttribute
  2
SCALE
 70
     0
 74
     2
  0
ATTRIB
  5
31F
100
AcDbEntity
  8
BORDER
100
AcDbText
 10
7.698907
 20
0.665917
 30
0.0
 40
0.1
  1

  7
SIMPLEX
 72
     1
 11
7.698907
 21
0.715917
 31
0.0
100
AcDbAttribute
  2
APPR
 70
     0
 74
     2
  0
ATTRIB
  5
320
100
AcDbEntity
  8
BORDER
100
AcDbText
 10
7.699011
 20
0.915917
 30
0.0
 40
0.1
  1

  7
SIMPLEX
 72
     1
 11
7.699011
 21
0.965917
 31
0.0
100
AcDbAttribute
  2
PREP
 70
     0
 74
     2
  0
ATTRIB
  5
321
100
AcDbEntity
  8
BORDER
100
AcDbText
 10
8.198933
 20
0.950194
 30
0.0
 40
0.1
  1

 41
0.6
  7
SIMPLEX
 72
     1
 11
8.198933
 21
1.000194
 31
0.0
100
AcDbAttribute
  2
DATE
 70
     0
 74
     2
  0
ATTRIB
  5
322
100
AcDbEntity
  8
BORDER
100
AcDbText
 10
10.016156
 20
0.033216
 30
0.0
 40
0.059055
  1
1 OF 1
  7
SIMPLEX
 72
     1
 11
10.155357
 21
0.062744
 31
0.0
100
AcDbAttribute
  2
SHEET
 70
     0
 74
     2
  0
SEQEND
  5
4C7
100
AcDbEntity
  8
OBJ
  0
TEXT
  5
4E4
100
AcDbEntity
  8
TEXT
100
AcDbText
 10
0.261107
 20
0.175698
 30
0.0
 40
0.0625
  1
5. DIMENSIONS SUBJECT TO CHANGE.  PLEASE CONSULT THE FACTORY.
  7
ROMANS
100
AcDbText
  0
ENDSEC
  0
SECTION
  2
OBJECTS
  0
DICTIONARY
  5
4DB
100
AcDbDictionary
  3
ACAD_GROUP
350
4D9
  3
ACAD_MLINESTYLE
350
4DA
  0
DICTIONARY
  5
4D9
102
{ACAD_REACTORS
330
4DB
102
}
100
AcDbDictionary
  0
DICTIONARY
  5
4DA
102
{ACAD_REACTORS
330
4DB
102
}
100
AcDbDictionary
  3
STANDARD
350
4DC
  0
MLINESTYLE
  5
4DC
102
{ACAD_REACTORS
330
4DA
102
}
100
AcDbMlineStyle
  2
STANDARD
 70
     0
  3

 62
     0
 51
90.0
 52
90.0
 71
     2
 49
0.5
 62
   256
  6
BYLAYER
 49
-0.5
 62
   256
  6
BYLAYER
  0
ENDSEC
  0
EOF
